» » »

Vega4, Bullets Tabs (ver.1)

Artists:  A B C D E F G H I J K L M N O P Q R S T U V W X Y Z # 

Bullets Tabs (ver.1)

Vega4 Tabs
 Rating:
4.4/5 (7 votes)
Bullets lessons Tabs too difficult? Try these video lessons and learn fast
                ----------------------------------------------------------------------------
----------------------------------------------------------------------------
tuning: EADGBe (standard)

i saw these guys supporting boykillboy in brighton, and got their album. i cant find 
for them anywhere, so heres their best song (in my opinion)

intro:
rhythm guitar:
 e|-----------------------------------------------------------------|
 B|-----------------------------------------------------------------|
 G|-----------------------------------------------------------------|
 D|-----------------------------------------------------------------|
 A|-----------------------------------------------------------------|
 E|-----------------------------------------------------------------|
lead guitar:
 e|-----------------4-----------------------------------------------|
 B|-------------------------------------------------4---------------|
 G|---------------------------------6-------------------------------|
 D|-6---------------------------------------------------------------|
 A|-6---------------------------------------------------------------|
 E|-4---------------------------------------------------------------|

rhythm guitar:
    C#m/G#                          A
 e|-4-4-4-4-4-4-4-4-4-4-4-4-4-4-4-4-5-5-5-5-5-5-5-5-5-5-5-5-5-5-5-5-|
 B|-5-5-5-5-5-5-5-5-5-5-5-5-5-5-5-5-5-5-5-5-5-5-5-5-5-5-5-5-5-5-5-5-|
 G|-6-6-6-6-6-6-6-6-6-6-6-6-6-6-6-6-6-6-6-6-6-6-6-6-6-6-6-6-6-6-6-6-|
 D|-6-6-6-6-6-6-6-6-6-6-6-6-6-6-6-6-7-7-7-7-7-7-7-7-7-7-7-7-7-7-7-7-|
 A|-4-4-4-4-4-4-4-4-4-4-4-4-4-4-4-4-7-7-7-7-7-7-7-7-7-7-7-7-7-7-7-7-|
 E|-4-4-4-4-4-4-4-4-4-4-4-4-4-4-4-4-5-5-5-5-5-5-5-5-5-5-5-5-5-5-5-5-|
lead guitar:
 e|-11--------------------------------------------------------------|
 B|-----------------12----------------------------------------------|
 G|---------------------------------9---------------8---------------|
 D|-----------------------------------------------------------------|
 A|-----------------------------------------------------------------|
 E|-----------------------------------------------------------------|

rhythm guitar:
    C#m/G#                          A
 e|-4-4-4-4-4-4-4-4-4-4-4-4-4-4-4-4-5-5-5-5-5-5-5-5-5-5-5-5-5-5-5-5-|
 B|-5-5-5-5-5-5-5-5-5-5-5-5-5-5-5-5-5-5-5-5-5-5-5-5-5-5-5-5-5-5-5-5-|
 G|-6-6-6-6-6-6-6-6-6-6-6-6-6-6-6-6-6-6-6-6-6-6-6-6-6-6-6-6-6-6-6-6-|
 D|-6-6-6-6-6-6-6-6-6-6-6-6-6-6-6-6-7-7-7-7-7-7-7-7-7-7-7-7-7-7-7-7-|
 A|-4-4-4-4-4-4-4-4-4-4-4-4-4-4-4-4-7-7-7-7-7-7-7-7-7-7-7-7-7-7-7-7-|
 E|-4-4-4-4-4-4-4-4-4-4-4-4-4-4-4-4-5-5-5-5-5-5-5-5-5-5-5-5-5-5-5-5-|
lead guitar:
 e|-11--------------------------------------------------------------|
 B|-----------------12----------------------------------------------|
 G|---------------------------------9---------------11--------------|
 D|-----------------------------------------------------------------|
 A|-----------------------------------------------------------------|
 E|-----------------------------------------------------------------|

verse one:
    C#m/G#                          A
 e|-4-4-4-4-4-4-4-4-4-4-4-4-4-4-4-4-5-5-5-5-5-5-5-5-5-5-5-5-5-5-5-5-|
 B|-5-5-5-5-5-5-5-5-5-5-5-5-5-5-5-5-5-5-5-5-5-5-5-5-5-5-5-5-5-5-5-5-|
 G|-6-6-6-6-6-6-6-6-6-6-6-6-6-6-6-6-6-6-6-6-6-6-6-6-6-6-6-6-6-6-6-6-|
 D|-6-6-6-6-6-6-6-6-6-6-6-6-6-6-6-6-7-7-7-7-7-7-7-7-7-7-7-7-7-7-7-7-|
 A|-4-4-4-4-4-4-4-4-4-4-4-4-4-4-4-4-7-7-7-7-7-7-7-7-7-7-7-7-7-7-7-7-|
 E|-4-4-4-4-4-4-4-4-4-4-4-4-4-4-4-4-5-5-5-5-5-5-5-5-5-5-5-5-5-5-5-5-|
  i need to know I broke.. .  . ..truth is that it’s about me


    F#                              A
 e|-2-2-2-2-2-2-2-2-2-2-2-2-2-2-2-2-5-5-5-5-5-5-5-5-5-5-5-5-5-5-5-5-|
 B|-2-2-2-2-2-2-2-2-2-2-2-2-2-2-2-2-5-5-5-5-5-5-5-5-5-5-5-5-5-5-5-5-|
 G|-3-3-3-3-3-3-3-3-3-3-3-3-3-3-3-3-6-6-6-6-6-6-6-6-6-6-6-6-6-6-6-6-|
 D|-4-4-4-4-4-4-4-4-4-4-4-4-4-4-4-4-7-7-7-7-7-7-7-7-7-7-7-7-7-7-7-7-|
 A|-4-4-4-4-4-4-4-4-4-4-4-4-4-4-4-4-7-7-7-7-7-7-7-7-7-7-7-7-7-7-7-7-|
 E|-2-2-2-2-2-2-2-2-2-2-2-2-2-2-2-2-5-5-5-5-5-5-5-5-5-5-5-5-5-5-5-5-|
    hurting just to find.. .    . ..giving me trouble

verse two:
    C#m/G#                          A
 e|-4-4-4-4-4-4-4-4-4-4-4-4-4-4-4-4-5-5-5-5-5-5-5-5-5-5-5-5-5-5-5-5-|
 B|-5-5-5-5-5-5-5-5-5-5-5-5-5-5-5-5-5-5-5-5-5-5-5-5-5-5-5-5-5-5-5-5-|
 G|-6-6-6-6-6-6-6-6-6-6-6-6-6-6-6-6-6-6-6-6-6-6-6-6-6-6-6-6-6-6-6-6-|
 D|-6-6-6-6-6-6-6-6-6-6-6-6-6-6-6-6-7-7-7-7-7-7-7-7-7-7-7-7-7-7-7-7-|
 A|-4-4-4-4-4-4-4-4-4-4-4-4-4-4-4-4-7-7-7-7-7-7-7-7-7-7-7-7-7-7-7-7-|
 E|-4-4-4-4-4-4-4-4-4-4-4-4-4-4-4-4-5-5-5-5-5-5-5-5-5-5-5-5-5-5-5-5-|
i’d like to know i left a scar i’m wondering do you feel free

    F#                              A
 e|-2-2-2-2-2-2-2-2-2-2-2-2-2-2-2-2-5-5-5-5-5-5-5-5-5-5-5-5-5-5-5-5-|
 B|-2-2-2-2-2-2-2-2-2-2-2-2-2-2-2-2-5-5-5-5-5-5-5-5-5-5-5-5-5-5-5-5-|
 G|-3-3-3-3-3-3-3-3-3-3-3-3-3-3-3-3-6-6-6-6-6-6-6-6-6-6-6-6-6-6-6-6-|
 D|-4-4-4-4-4-4-4-4-4-4-4-4-4-4-4-4-7-7-7-7-7-7-7-7-7-7-7-7-7-7-7-7-|
 A|-4-4-4-4-4-4-4-4-4-4-4-4-4-4-4-4-7-7-7-7-7-7-7-7-7-7-7-7-7-7-7-7-|
 E|-2-2-2-2-2-2-2-2-2-2-2-2-2-2-2-2-5-5-5-5-5-5-5-5-5-5-5-5-5-5-5-5-|
 do you still kiss like.. .     . ..keeping my secrets

bridge one:
    F#                              A
 e|-2-2-2-2-2-2-2-2-2-2-2-2-2-2-2-2-5-5-5-5-5-5-5-5-5-5-5-5-5-5-5-5-|
 B|-2-2-2-2-2-2-2-2-2-2-2-2-2-2-2-2-5-5-5-5-5-5-5-5-5-5-5-5-5-5-5-5-|
 G|-3-3-3-3-3-3-3-3-3-3-3-3-3-3-3-3-6-6-6-6-6-6-6-6-6-6-6-6-6-6-6-6-|
 D|-4-4-4-4-4-4-4-4-4-4-4-4-4-4-4-4-7-7-7-7-7-7-7-7-7-7-7-7-7-7-7-7-|
 A|-4-4-4-4-4-4-4-4-4-4-4-4-4-4-4-4-7-7-7-7-7-7-7-7-7-7-7-7-7-7-7-7-|
 E|-2-2-2-2-2-2-2-2-2-2-2-2-2-2-2-2-5-5-5-5-5-5-5-5-5-5-5-5-5-5-5-5-|
i’m pretty good at honesty this is causing me trouble

chorus one:
    E                               B
 e|-7-7-7-7-7-7-7-7-7-7-7-7-7-7-7-7-7-7-7-7-7-7-7-7-7-7-7-7-7-7-7-7-|
 B|-9-9-9-9-9-9-9-9-9-9-9-9-9-9-9-9-7-7-7-7-7-7-7-7-7-7-7-7-7-7-7-7-|
 G|-9-9-9-9-9-9-9-9-9-9-9-9-9-9-9-9-8-8-8-8-8-8-8-8-8-8-8-8-8-8-8-8-|
 D|-9-9-9-9-9-9-9-9-9-9-9-9-9-9-9-9-9-9-9-9-9-9-9-9-9-9-9-9-9-9-9-9-|
 A|-7-7-7-7-7-7-7-7-7-7-7-7-7-7-7-7-9-9-9-9-9-9-9-9-9-9-9-9-9-9-9-9-|
 E|---------------------------------7-7-7-7-7-7-7-7-7-7-7-7-7-7-7-7-|
    you lit me up   and hit me like bullets

    C#m                             A
 e|-4-4-4-4-4-4-4-4-4-4-4-4-4-4-4-4-5-5-5-5-5-5-5-5-5-5-5-5-5-5-5-5-|
 B|-5-5-5-5-5-5-5-5-5-5-5-5-5-5-5-5-5-5-5-5-5-5-5-5-5-5-5-5-5-5-5-5-|
 G|-6-6-6-6-6-6-6-6-6-6-6-6-6-6-6-6-6-6-6-6-6-6-6-6-6-6-6-6-6-6-6-6-|
 D|-6-6-6-6-6-6-6-6-6-6-6-6-6-6-6-6-7-7-7-7-7-7-7-7-7-7-7-7-7-7-7-7-|
 A|-4-4-4-4-4-4-4-4-4-4-4-4-4-4-4-4-7-7-7-7-7-7-7-7-7-7-7-7-7-7-7-7-|
 E|---------------------------------5-5-5-5-5-5-5-5-5-5-5-5-5-5-5-5-|
    pieces of you       are left in me

    E                               B
 e|-7-7-7-7-7-7-7-7-7-7-7-7-7-7-7-7-7-7-7-7-7-7-7-7-7-7-7-7-7-7-7-7-|
 B|-9-9-9-9-9-9-9-9-9-9-9-9-9-9-9-9-7-7-7-7-7-7-7-7-7-7-7-7-7-7-7-7-|
 G|-9-9-9-9-9-9-9-9-9-9-9-9-9-9-9-9-8-8-8-8-8-8-8-8-8-8-8-8-8-8-8-8-|
 D|-9-9-9-9-9-9-9-9-9-9-9-9-9-9-9-9-9-9-9-9-9-9-9-9-9-9-9-9-9-9-9-9-|
 A|-7-7-7-7-7-7-7-7-7-7-7-7-7-7-7-7-9-9-9-9-9-9-9-9-9-9-9-9-9-9-9-9-|
 E|---------------------------------7-7-7-7-7-7-7-7-7-7-7-7-7-7-7-7-|
the craziest thing        is that i love it

    C#m                             A
 e|-4-4-4-4-4-4-4-4-4-4-4-4-4-4-4-4-5-5-5-5-5-5-5-5-5---------------|
 B|-5-5-5-5-5-5-5-5-5-5-5-5-5-5-5-5-5-5-5-5-5-5-5-5-5---------------|
 G|-6-6-6-6-6-6-6-6-6-6-6-6-6-6-6-6-6-6-6-6-6-6-6-6-6---------------|
 D|-6-6-6-6-6-6-6-6-6-6-6-6-6-6-6-6-7-7-7-7-7-7-7-7-7---------------|
 A|-4-4-4-4-4-4-4-4-4-4-4-4-4-4-4-4-7-7-7-7-7-7-7-7-7---------------|
 E|---------------------------------5-5-5-5-5-5-5-5-5---------------|
the holes in me                 the holes in me

verse three:
    C#m/G#                          A
 e|-4-4-4-4-4-4-4-4-4-4-4-4-4-4-4-4-5-5-5-5-5-5-5-5-5-5-5-5-5-5-5-5-|
 B|-5-5-5-5-5-5-5-5-5-5-5-5-5-5-5-5-5-5-5-5-5-5-5-5-5-5-5-5-5-5-5-5-|
 G|-6-6-6-6-6-6-6-6-6-6-6-6-6-6-6-6-6-6-6-6-6-6-6-6-6-6-6-6-6-6-6-6-|
 D|-6-6-6-6-6-6-6-6-6-6-6-6-6-6-6-6-7-7-7-7-7-7-7-7-7-7-7-7-7-7-7-7-|
 A|-4-4-4-4-4-4-4-4-4-4-4-4-4-4-4-4-7-7-7-7-7-7-7-7-7-7-7-7-7-7-7-7-|
 E|-4-4-4-4-4-4-4-4-4-4-4-4-4-4-4-4-5-5-5-5-5-5-5-5-5-5-5-5-5-5-5-5-|
    this is not an apology      not sentiment not surgery

    F#                              A
 e|-2-2-2-2-2-2-2-2-2-2-2-2-2-2-2-2-5-5-5-5-5-5-5-5-5-5-5-5-5-5-5-5-|
 B|-2-2-2-2-2-2-2-2-2-2-2-2-2-2-2-2-5-5-5-5-5-5-5-5-5-5-5-5-5-5-5-5-|
 G|-3-3-3-3-3-3-3-3-3-3-3-3-3-3-3-3-6-6-6-6-6-6-6-6-6-6-6-6-6-6-6-6-|
 D|-4-4-4-4-4-4-4-4-4-4-4-4-4-4-4-4-7-7-7-7-7-7-7-7-7-7-7-7-7-7-7-7-|
 A|-4-4-4-4-4-4-4-4-4-4-4-4-4-4-4-4-7-7-7-7-7-7-7-7-7-7-7-7-7-7-7-7-|
 E|-2-2-2-2-2-2-2-2-2-2-2-2-2-2-2-2-5-5-5-5-5-5-5-5-5-5-5-5-5-5-5-5-|
    people falling out of time just tripping and stutters       you’re

bridge two:
    F#                              A
 e|-2-2-2-2-2-2-2-2-2-2-2-2-2-2-2-2-5-5-5-5-5-5-5-5-5-5-5-5-5-5-5-5-|
 B|-2-2-2-2-2-2-2-2-2-2-2-2-2-2-2-2-5-5-5-5-5-5-5-5-5-5-5-5-5-5-5-5-|
 G|-3-3-3-3-3-3-3-3-3-3-3-3-3-3-3-3-6-6-6-6-6-6-6-6-6-6-6-6-6-6-6-6-|
 D|-4-4-4-4-4-4-4-4-4-4-4-4-4-4-4-4-7-7-7-7-7-7-7-7-7-7-7-7-7-7-7-7-|
 A|-4-4-4-4-4-4-4-4-4-4-4-4-4-4-4-4-7-7-7-7-7-7-7-7-7-7-7-7-7-7-7-7-|
 E|-2-2-2-2-2-2-2-2-2-2-2-2-2-2-2-2-5-5-5-5-5-5-5-5-5-5-5-5-5-5-5-5-|
    beautiful its not your.. .  . ..causing me trouble

chorus two:
    E                               B
 e|-7-7-7-7-7-7-7-7-7-7-7-7-7-7-7-7-7-7-7-7-7-7-7-7-7-7-7-7-7-7-7-7-|
 B|-9-9-9-9-9-9-9-9-9-9-9-9-9-9-9-9-7-7-7-7-7-7-7-7-7-7-7-7-7-7-7-7-|
 G|-9-9-9-9-9-9-9-9-9-9-9-9-9-9-9-9-8-8-8-8-8-8-8-8-8-8-8-8-8-8-8-8-|
 D|-9-9-9-9-9-9-9-9-9-9-9-9-9-9-9-9-9-9-9-9-9-9-9-9-9-9-9-9-9-9-9-9-|
 A|-7-7-7-7-7-7-7-7-7-7-7-7-7-7-7-7-9-9-9-9-9-9-9-9-9-9-9-9-9-9-9-9-|
 E|---------------------------------7-7-7-7-7-7-7-7-7-7-7-7-7-7-7-7-|
    you lit me up   and hit me like bullets                     these

    C#m                             A
 e|-4-4-4-4-4-4-4-4-4-4-4-4-4-4-4-4-5-5-5-5-5-5-5-5-5-5-5-5-5-5-5-5-|
 B|-5-5-5-5-5-5-5-5-5-5-5-5-5-5-5-5-5-5-5-5-5-5-5-5-5-5-5-5-5-5-5-5-|
 G|-6-6-6-6-6-6-6-6-6-6-6-6-6-6-6-6-6-6-6-6-6-6-6-6-6-6-6-6-6-6-6-6-|
 D|-6-6-6-6-6-6-6-6-6-6-6-6-6-6-6-6-7-7-7-7-7-7-7-7-7-7-7-7-7-7-7-7-|
 A|-4-4-4-4-4-4-4-4-4-4-4-4-4-4-4-4-7-7-7-7-7-7-7-7-7-7-7-7-7-7-7-7-|
 E|---------------------------------5-5-5-5-5-5-5-5-5-5-5-5-5-5-5-5-|
    pieces of you       are left in me

    E                               B
 e|-7-7-7-7-7-7-7-7-7-7-7-7-7-7-7-7-7-7-7-7-7-7-7-7-7-7-7-7-7-7-7-7-|
 B|-9-9-9-9-9-9-9-9-9-9-9-9-9-9-9-9-7-7-7-7-7-7-7-7-7-7-7-7-7-7-7-7-|
 G|-9-9-9-9-9-9-9-9-9-9-9-9-9-9-9-9-8-8-8-8-8-8-8-8-8-8-8-8-8-8-8-8-|
 D|-9-9-9-9-9-9-9-9-9-9-9-9-9-9-9-9-9-9-9-9-9-9-9-9-9-9-9-9-9-9-9-9-|
 A|-7-7-7-7-7-7-7-7-7-7-7-7-7-7-7-7-9-9-9-9-9-9-9-9-9-9-9-9-9-9-9-9-|
 E|---------------------------------7-7-7-7-7-7-7-7-7-7-7-7-7-7-7-7-|
the craziest thing        is that i love it

    C#m                             A
 e|-4-4-4-4-4-4-4-4-4-4-4-4-4-4-4-4-5-5-5-5-5-5-5-5-5-5-5-5-5-5-5-5-|
 B|-5-5-5-5-5-5-5-5-5-5-5-5-5-5-5-5-5-5-5-5-5-5-5-5-5-5-5-5-5-5-5-5-|
 G|-6-6-6-6-6-6-6-6-6-6-6-6-6-6-6-6-6-6-6-6-6-6-6-6-6-6-6-6-6-6-6-6-|
 D|-6-6-6-6-6-6-6-6-6-6-6-6-6-6-6-6-7-7-7-7-7-7-7-7-7-7-7-7-7-7-7-7-|
 A|-4-4-4-4-4-4-4-4-4-4-4-4-4-4-4-4-7-7-7-7-7-7-7-7-7-7-7-7-7-7-7-7-|
 E|---------------------------------5-5-5-5-5-5-5-5-5-5-5-5-5-5-5-5-|
the holes in me                 the holes in me

solo:
(for the first half of the solo, each note is played four times. i cant write it down in 
tab without making it confusing, so you will have to work it out. my guitar only has 22 
so I don’t go up to 23, I stay on fret 21.)
 E|----11------------------------------11------11------12------14---|
 B|-----------12------9-------9-------------------------------------|
 G|-----------------------------------------------------------------|
 D|-----------------------------------------------------------------|
 A|-----------------------------------------------------------------|
 E|-----------------------------------------------------------------|

 e|----16------16------16------16------17------19------21------23---|
 B|-----------------------------------------------------------------|
 G|-----------------------------------------------------------------|
 D|-----------------------------------------------------------------|
 A|-----------------------------------------------------------------|
 E|-----------------------------------------------------------------|

(for the second half of the solo, play each note eight times in very fast continuous up 
down strokes. it helps to mute all the strings, fret the string you want, and strum all 
strings so only one string sounds)
 E|----11-----x-------x-------x--------11------11------12------14---|
 B|----x------12------9-------9--------x-------x-------x-------x----|
 G|----x------x-------x-------x--------x-------x-------x-------x----|
 D|----x------x-------x-------x--------x-------x-------x-------x----|
 A|-----------------------------------------------------------------|
 E|-----------------------------------------------------------------|

 e|----16------16------16------16------17------19------21------23---|
 B|----x-------x-------x-------x-------x-------x-------x-------x----|
 G|----x-------x-------x-------x-------x-------x-------x-------x----|
 D|----x-------x-------x-------x-------x-------x-------x-------x----|
 A|-----------------------------------------------------------------|
 E|-----------------------------------------------------------------|

chorus:
    E                               B
 e|-7-7-7-7-7-7-7-7-7-7-7-7-7-7-7-7-7-7-7-7-7-7-7-7-7-7-7-7-7-7-7-7-|
 B|-9-9-9-9-9-9-9-9-9-9-9-9-9-9-9-9-7-7-7-7-7-7-7-7-7-7-7-7-7-7-7-7-|
 G|-9-9-9-9-9-9-9-9-9-9-9-9-9-9-9-9-8-8-8-8-8-8-8-8-8-8-8-8-8-8-8-8-|
 D|-9-9-9-9-9-9-9-9-9-9-9-9-9-9-9-9-9-9-9-9-9-9-9-9-9-9-9-9-9-9-9-9-|
 A|-7-7-7-7-7-7-7-7-7-7-7-7-7-7-7-7-9-9-9-9-9-9-9-9-9-9-9-9-9-9-9-9-|
 E|---------------------------------7-7-7-7-7-7-7-7-7-7-7-7-7-7-7-7-|
and you lit me up   and hit me like bullets                     these

    C#m                             A
 e|-4-4-4-4-4-4-4-4-4-4-4-4-4-4-4-4-5-5-5-5-5-5-5-5-5-5-5-5-5-5-5-5-|
 B|-5-5-5-5-5-5-5-5-5-5-5-5-5-5-5-5-5-5-5-5-5-5-5-5-5-5-5-5-5-5-5-5-|
 G|-6-6-6-6-6-6-6-6-6-6-6-6-6-6-6-6-6-6-6-6-6-6-6-6-6-6-6-6-6-6-6-6-|
 D|-6-6-6-6-6-6-6-6-6-6-6-6-6-6-6-6-7-7-7-7-7-7-7-7-7-7-7-7-7-7-7-7-|
 A|-4-4-4-4-4-4-4-4-4-4-4-4-4-4-4-4-7-7-7-7-7-7-7-7-7-7-7-7-7-7-7-7-|
 E|---------------------------------5-5-5-5-5-5-5-5-5-5-5-5-5-5-5-5-|
    pieces of you       are left in me    and       I         find

    E                               B
 e|-7-7-7-7-7-7-7-7-7-7-7-7-7-7-7-7-7-7-7-7-7-7-7-7-7-7-7-7-7-7-7-7-|
 B|-9-9-9-9-9-9-9-9-9-9-9-9-9-9-9-9-7-7-7-7-7-7-7-7-7-7-7-7-7-7-7-7-|
 G|-9-9-9-9-9-9-9-9-9-9-9-9-9-9-9-9-8-8-8-8-8-8-8-8-8-8-8-8-8-8-8-8-|
 D|-9-9-9-9-9-9-9-9-9-9-9-9-9-9-9-9-9-9-9-9-9-9-9-9-9-9-9-9-9-9-9-9-|
 A|-7-7-7-7-7-7-7-7-7-7-7-7-7-7-7-7-9-9-9-9-9-9-9-9-9-9-9-9-9-9-9-9-|
 E|---------------------------------7-7-7-7-7-7-7-7-7-7-7-7-7-7-7-7-|
the craziest thing        is that i love it

    C#m                             A
 e|-4-4-4-4-4-4-4-4-4-4-4-4-4-4-4-4-5-5-5-5-5-5-5-5-5-5-5-5-5-5-5-5-|
 B|-5-5-5-5-5-5-5-5-5-5-5-5-5-5-5-5-5-5-5-5-5-5-5-5-5-5-5-5-5-5-5-5-|
 G|-6-6-6-6-6-6-6-6-6-6-6-6-6-6-6-6-6-6-6-6-6-6-6-6-6-6-6-6-6-6-6-6-|
 D|-6-6-6-6-6-6-6-6-6-6-6-6-6-6-6-6-7-7-7-7-7-7-7-7-7-7-7-7-7-7-7-7-|
 A|-4-4-4-4-4-4-4-4-4-4-4-4-4-4-4-4-7-7-7-7-7-7-7-7-7-7-7-7-7-7-7-7-|
 E|---------------------------------5-5-5-5-5-5-5-5-5-5-5-5-5-5-5-5-|
the holes in me                 the holes in me


enjoy!


lyrics:
=======
i need to know i broke your heart
the truth is it’s about me
hurting just to find a line
this is giving me trouble

i’d like to know i left a scar
i’m wondering do you feel free?
do you still kiss like you kissed me?
are you still keeping my secrets?

i’m pretty good at honesty
this is causing me trouble

you lit me up and hit me like bullets
pieces of you are left in me
the craziest thing is that i love it
the holes in me, the holes in me

this is not an apology
not sentiment, not surgery
people falling out of time
just tripping and stutters

you’re beautiful its not your fault
and its causing me trouble

you lit me up and hit me like bullets
these pieces of you are left in me
the craziest thing is that i love it
the holes in me, the holes in me

and you lit me up and hit me like bullets
these pieces of you are left in me
and i find the craziest thing is that i love it
the holes in me, the holes in me
============================================================================
| /  slide up
| \  slide down
| h  hammer-on
| p  pull-off
| ~  vibrato
| +  harmonic
| x  Mute note
| ¬  palm mute
============================================================================
            
Submit corrections

comments powered by Disqus
↑ Back to top | Vega4 Tabs for Bullets. Lyrics for acoustic guitar and electric guitar. Tablatures and chords are parodies/interpretations of the original songs. You may use it for private study, scholarship, research or language learning purposes only