» » »

Vedera, Satisfy Tabs (ver.1)

Artists:  A B C D E F G H I J K L M N O P Q R S T U V W X Y Z # 

Satisfy Tabs (ver.1)

Vedera Tabs
 Rating:
4/5 (4 votes)
Satisfy lessons Tabs too difficult? Try these video lessons and learn fast
                

Tuning: Standard - EADGBe

If you have any corrections, leave a comment. The first guitar part of both
the chorus and the second verse can be played by the regular chords if you
don't want to add the high e and b strings (Em rather than Em7)

Intro/Verse 1
e:---------------------------------|
B:-----3-------3-------3-------3---|
G:---0---0---0---0---0---0---0---0-|(x6)
D:-5-------2---------------0-------|End on
A:-----------------3---------------|open D
E:---------------------------------|


Pre-Chorus:

Guitar 1:
e:-3--3--3--2-|
B:-3--3--3--3-|
G:-0--0--0--2-|(x4)
D:-0--2--2--0-|
A:-2--2--3--x-|
E:-3--0--x--x-|

Guitar 2
e:--------------|
B:-8---8--7---7-|
G:---9------7---|(x2)
D:--------------|
A:--------------|
E:--------------|


Chorus:

Guitar 1
e:--3--2--3--3--2--|
B:--3--3--3--3--3--|
G:--0--2--0--0--2--|(x2)
D:--0--0--2--2--0--|
A:--2--0--2--3--0--|
E:--3--2--0--x--x--|

Guitar 2
e:----------------------------------------|
B:-12---12----10----10----8---8---8---8---|
G:---12----12----11----11---9---9---9---9-|
D:----------------------------------------|
A:----------------------------------------|
E:----------------------------------------|
    cont.
e:-------------------------------------|
B:---------------------7---7---7---7---|
G:-7----7----7----7------7---7---7---7-|
D:---10---10---10---10-----------------|
A:-------------------------------------|
E:-------------------------------------|


Pre-Verse:
e:---7-10---7-10---8-7----7------|
B:-8------8------8-----10---10-8-|
G:-------------------------------|
D:-------------------------------|
A:-------------------------------|
E:-------------------------------|


Verse 2:

Guitar 1
e:-3--3--3--2-|
B:-3--3--3--3-|
G:-0--0--0--2-|(x4)
D:-0--2--2--0-|
A:-2--2--3--x-|
E:-3--0--x--x-|

Guitar 2
e:---------------------------------|
B:-----3-------3-------3-------3---|
G:---0---0---0---0---0---0---0---0-|(x4)
D:-5-------2---------------0-------|
A:-----------------3---------------|
E:---------------------------------|


Chorus:

Guitar 1
e:--3--2--3--3--2--|
B:--3--3--3--3--3--|
G:--0--2--0--0--2--|(x2)
D:--0--0--2--2--0--|
A:--2--0--2--3--0--|
E:--3--2--0--x--x--|

Guitar 2
e:----------------------------------------|
B:-12---12----10----10----8---8---8---8---|
G:---12----12----11----11---9---9---9---9-|
D:----------------------------------------|
A:----------------------------------------|
E:----------------------------------------|
   cont.
e:-------------------------------------|
B:---------------------7---7---7---7---|
G:-7----7----7----7------7---7---7---7-|
D:---10---10---10---10-----------------|
A:-------------------------------------|
E:-------------------------------------|

Bridge:

Guitar 1
e:-3--3--3--2-|
B:-3--3--3--3-|
G:-0--0--0--2-|
D:-2--2--2----|
A:-3--2--3--x-|
E:-x--0--x--x-|


Play both chorus guitar parts until the end
            
Submit corrections

comments powered by Disqus
↑ Back to top | Vedera Tabs for Satisfy. Lyrics for acoustic guitar and electric guitar. Tablatures and chords are parodies/interpretations of the original songs. You may use it for private study, scholarship, research or language learning purposes only