» » »

Vaux, Ride Out Bitch Tabs (ver.1)

Artists:  A B C D E F G H I J K L M N O P Q R S T U V W X Y Z # 

Ride Out Bitch Tabs (ver.1)

Vaux Tabs
 Rating:
4/5 (5 votes)
Ride Out Bitch lessons Tabs too difficult? Try these video lessons and learn fast
                ------------------------------------------------------------------------
------------------------------------------------------------------------
This should be pretty close.  It's a mix of the three guitars.

Tuning: Drop D (DADGBe)

INTRO/VERSE X2

e|---------------------------------------------------------------------|
B|---------------------------------------------------------------------|
G|---------------------------------------------------------------------|
D|--0--0--0--0---------------------------------------------------------|
A|--0--0--0--0---------------------------------------------------------|
D|--0--0--0--0-121212151515--17171717171517----------------------------|


e|---------------------------------------------------------------------|
B|---------------------------------------------------------------------|
G|---------------------------------------------------------------------|
D|-0--0--0--0----------------------------------------------------------|
A|-0--0--0--0-1313131212121212-----------------------------------------|
D|-0--0--0--0-----------------17171515151717171517---------------------|

PRE-CHORUS X1

e|---------------------------------------------------------------------|
B|---------------------------------------------------------------------|
G|---------------------------------------------------------------------|
D|--0--0--0------------------------------------------------------------|
A|--0--0--0------------------------------------------------------------|
D|--0--0--0------------------------------------------------------------|

CHORUS X4

e|---------------------------------------------------------------------|
B|---------------------------------------------------------------------|
G|--788---------788---787----------------------------------------------|
D|--xxx-03561---xxx---xxx----------------------------------------------|
A|--566-03561---566---565----------------------------------------------|
D|------03561----------------------------------------------------------|

(one guitar=X2)
e|---------------------------------------------------------------------|
B|---------------------------------------------------------------------|
G|---------------------------------------------------------------------|
D|-XXXXXXXXXXXXXXXXXXXXXXXXX-------------------------------------------|
A|-XXXXXXXXXXXXXXXXXXXXXXXXX-------------------------------------------|
D|-XXXXXXXXXXXXXXXXXXXXXXXXX-------------------------------------------|

POST-CHORUS X1

e|---------------------------------------------------------------------|
B|---------------------------------------------------------------------|
G|---------------------------------------------------------------------|
D|--0------------------------------------------------------------------|
A|--0-(a bunch)--------------------------------------------------------|
D|--0------------------------------------------------------------------|

e|---------------------------------------------------------------------|
B|---------------------------------------------------------------------|
G|---------------------------------------------------------------------|
D|---------------------------------------------------------------------|
A|-13131313131313131212121212121212------------------------------------|
D|---------------------------------15151515151515171717171717171517----|


e|---------------------------------------------------------------------|
B|---------------------------------------------------------------------|
G|---------------------------------------------------------------------|
D|---------------------------------------------------------------------|
A|-13131313131313131212121212121212------------------------------------|
D|---------------------------------1212121212121215151515151515171717--|

VERSE X2
PRE-CHORUS X1
CHORUS X4

BRIDGE

e|---------------------------------------------------------------------|
B|---------------------------------------------------------------------|
G|---------------------------------------------------------------------|
D|-13p0-13p0-13p0-13p0-13p0-13p0-13p0-13p0---0--0----------------------|
A|-13p0-13p0-13p0-13p0-13p0-13p0-13p0-13p0---0--0----------------------|
D|-13p0-13p0-13p0-13p0-13p0-13p0-13p0-13p0---0--0----------------------|


e|---------------------------------------------------------------------|
B|---------------------------------------------------------------------|
G|---------------------------------------------------------------------|
D|-13-000--------------------------------------------------------------|
A|-13-000-(a bunch)----------------------------------------------------|
D|-13-000--------------------------------------------------------------|

e|---------------------------------------------------------------------|
B|-------------------------------------------8-------------------------|
G|-8////7-----------8////7------------------------8------------8-------|
D|----------------------------------------------------------8----------|
A|--------5////8-----------5////8----5////8---------5////8-------------|
D|---------------------------------------------------------------------|

BRIDGE SOLO

e|---------------------------------------------------------------------|
B|-------11-9-------9-8-------6----------------------------------------|
G|--7h87------77h87-----77h87---8-7h875h7--(x4)------------------------|
D|---------------------------------------------------------------------|
A|---------------------------------------------------------------------|
D|---------------------------------------------------------------------|

e|---------------------------------------------------------------------|
B|--1111---------------1111------666-------1111------668810101111------|
G|------8877557755---------887788---887755-----887788------------------|
D|----------------8877-------------------------------------------------|
A|---------------------------------------------------------------------|
D|---------------------------------------------------------------------|

CHOURUS X4


| h  hammer-on
| p  pull-off
========================================================================
            
Submit corrections

comments powered by Disqus
↑ Back to top | Vaux Tabs for Ride Out Bitch. Lyrics for acoustic guitar and electric guitar. Tablatures and chords are parodies/interpretations of the original songs. You may use it for private study, scholarship, research or language learning purposes only