>
 >
Identity Theft

Identity Theft Guitar Tabs

Vaux - Identity Theft chords, tabs, tablatures, lyrics

Guitar lessons | Add/correct | Request | Top 50 tabs Artists:  A B C D E F G H I J K L M N O P Q R S T U V W X Y Z 0-9

Identity Theft Guitar Tabs – Vaux

CD, Sheet music, Poster

Do you like Identity Theft? Share with your friends now
Tabs
VAUX- IDENTITY THEFT

this is what it sounds like to me. some of it could be made up, but to me it sounds like it's there. 


INTRO

[guitar 1] 0:00 1x
e|---------------------------------------------------------------------------|
B|---------------------------------------------------------------------------|
G|-12-12-12-12--12-12/13-13-10-8-7--12-10/19--19-19-19-17--------------------|
D|--x--x--x--x---x--x--x--x--x-x-x---x--x--x--x--x--x--x---------------------|
A|-10-10-10-10--10-10/11-11--8-6-5--10--8/17--17-17-17-15--------------------|
D|---------------------------------------------------------------------------|

INTRO 2

[guitar 1] 0:05      2x
e|----------------------------------------------------------------------------|
B|----------------------------------------------------------------------------|
G|-12-12-12-12--12-12-12-12-12-12-10-10--13-13-13-13--13-13-13-13-13-13-10/13-|
D|--x--x--x--x---x--x--x--x--x--x--x--x---x--x--x--x---x--x--x--x--x--x--x--x-|
A|-10-10-10-10--10-10-10-10-10-10--8--8--11-11-11-11--11-11-11-11-11-11--8/11-|
D|----------------------------------------------------------------------------|

[guitar 2 ] 0:03
  come in on...              2x
e|----------------|---------------------------------------------------------------------------|
B|----------------|---------------------------------------------------------------------------|
G|----------------|---------------------------------------------------------------------------|
D|-6p5-0h3--8h10~-|-5555-555555-33-6666-666666-3/6--------------------------------------------|
A|-6p5-0h3--8h10~-|-5555-555555-33-6666-666666-3/6--------------------------------------------|
D|-6p5-0h3--8h10~-|-5555-555555-33-6666-666666-3/6--------------------------------------------|

[guitar 3] 0:05      2x
e|---------------------------------------------------------------------------|
B|---------------------------------------------------------------------------|
G|-7-7-7-7--7-7-7-7-7-7--5-5--8-8-8-8--8-8-8-8-8-8--5/8----------------------|
D|-x-x-x-x--x-x-x-x-x-x--x-x--x-x-x-x--x-x-x-x-x-x--x-x----------------------|
A|-5-5-5-5--5-5-5-5-5-5--3-3--6-6-6-6--6-6-6-6-6-6--3/6----------------------|
D|---------------------------------------------------------------------------|

VERSE 1

[guitar 1]0:24
e|---------------------------------------------------------------------------|
B|---------------------------------------------------------------------------|
G|---------6***7***----------------------------------------------------------|
D|--[rest]-x***x***----------------------------------------------------------|
A|---------4***5***----------------------------------------------------------|
D|---------------------------------------------------------------------------|

[guitar 2]0:15       4x
e|---------------------------------------------------------------------------|
B|---------------------------------------------------------------------------|
G|-7-7-7---8-7-7-7-----------------------------------------------------------|
D|-x-x-x---x-x-x-x-----------------------------------------------------------|
A|-5-5-5---6-5-5-5-----------------------------------------------------------|
D|---------------------------------------------------------------------------|

[guitar 3]0:15  4x   ending
e|-----------------|----------------------------------------------------------|
B|-----------------|----------------------------------------------------------|
G|-----------------|----------------------------------------------------------|
D|-5-5-5---6-5-5-5-|-3-10/6---------------------------------------------------|
A|-5-5-5---6-5-5-5-|-3-10/6---------------------------------------------------|
D|-5-5-5---6-5-5-5-|-3-10/6---------------------------------------------------|


PRE-CHORUS

[guitar 1]0:34    1x
e|-----------------------------------------------------------------|
B|-----------------------------------------------------------------|
G|-12-12-12-12--12-12/13-13-10-8-7--12-12-12-12-10/19--19-19-19-17-|
D|--x--x--x--x---x--x--x--x--x-x-x---x--x--x--x--x--x---x--x--x--x-|
A|-10-10-10-10--10-10/11-11--8-6-5--10-10-10-10--8/17--17-17-17-15-|     
D|-----------------------------------------------------------------|

CHORUS

[guitar 1]0:39 (order= B A B A)
e|-----------------------------------------------------------------|
B|-----------------------------------------------------------------|   A
G|-12-12-12-12--12-12/13-13-10-8-7--12-12-12-12-10/19--19-19-19-17-|  A A 
D|--x--x--x--x---x--x--x--x--x-x-x---x--x--x--x--x--x---x--x--x--x-| A   A
A|-10-10-10-10--10-10/11-11--8-6-5--10-10-10-10--8/17--17-17-17-15-|AAAAAAA     
D|-----------------------------------------------------------------|A     A

e|--------------------------------------------------------------------|
B|--------------------------------------------------------------------|BBB
G|-12-12-12-12--12-12/13-13-10-8-7--12-12-12-12--12-12-13-13-12-17-15-|B  B
D|--x--x--x--x---x--x--x--x--x-x-x---x--x--x--x---x--x--x--x--x--x--x-|BBB  
A|-10-10-10-10--10-10/11-11--8-6-5--10-10-10-10--10-10/11-11-10-15-13-|B  B
D|--------------------------------------------------------------------|BBB 

[guitar 2]0:39         2x
e|---------------------------------------------------------------------------|
B|---------------------------------------------------------------------------|
G|-7777-777777-5/8-7777-777777--55-8888-888888-7777-777777-------------------|
D|-xxxx-xxxxxx-x-x-xxxx-xxxxxx--xx-xxxx-xxxxxx-xxxx-xxxxxx-------------------|
A|-5555-555555-3/6-5555-555555--33-6666-666666-5555-555555-------------------|
D|---------------------------------------------------------------------------|

[guitar 3]0:39       2x
e|------------------------------------------------------------------------------------|
B|------------------------------------------------------------------------------------|
G|------------------------------------------------------------------------------------|
D|-5555-555555-3/6-5555-555555-33-10-10-10-10--10-10-10-10-10-10-10--0-8888-888888-86-|
A|-5555-555555-3/6-5555-555555-33-10-10-10-10--10-10-10-10-10-10-10--0-8888-888888-86-|
D|-5555-555555-3/6-5555-555555-33-10-10-10-10--10-10-10-10-10-10-10--0-8888-888888-86-|

POST-CHORUS

[guitar 2]0:59         2x
e|---------------------------------------------------------------------------|
B|---------------------------------------------------------------------------|
G|-7-7-7-7-58-7-7-7-7-75-12-12-12-12-12-12-10-10-10-10-10-8------------------|
D|-x-x-x-x-xx-x-x-x-x-xx--x--x--x--x--x--x--x--x--x--x--x-x------------------|
A|-5-5-5-5-36-5-5-5-5-53-10-10-10-10-10-10--8--8--8--8--8-6------------------|
D|---------------------------------------------------------------------------|

[guitar 3]0:59         2x
e|---------------------------------------------------------------------------|
B|---------------------------------------------------------------------------|
G|---------------------------------------------------------------------------|
D|-5-5-5-5-36-5-5-5-5-53-10-10-10-10-10-10-8-8-8-8-8-6-----------------------|
A|-5-5-5-5-36-5-5-5-5-53-10-10-10-10-10-10-8-8-8-8-8-6-----------------------|
D|-5-5-5-5-36-5-5-5-5-53-10-10-10-10-10-10-8-8-8-8-8-6-----------------------|

BRIDGE

[guitar 1]1:25
e|---------------------------------------------------------------------------|
B|---------------------------------------------------------------------------|
G|-15-17-19------------------------------------------------------------------|
D|--x--x--x--[just lightly jam on these three chords]------------------------|
A|-13-15-17------------------------------------------------------------------|
D|---------------------------------------------------------------------------|


[guitar 2]1:18        4x
e|---------------------------------------------------------------------------|
B|---------------------------------------------------------------------------|
G|---------------------------------------------------------------------------|
D|-5--5----5--5----10--10---10-8--8--8---------------------------------------|
A|---------------------------------------------------------------------------|
D|---------------------------------------------------------------------------|


[guitar 3]1:18
e|---------------------------------------------------------------------------|
B|---------------------------------------------------------------------------|
G|---------------------------------------------------------------------------|
D|-5~------------------------------------------------------------------------|
A|-5~------------------------------------------------------------------------|
D|-5~------------------------------------------------------------------------|

POST-CHORUS 4x total (1:57)

BRIDGE 2

[guitar 1]2:41    1x
e|---------------------------------------------------------------------------|
B|---------------------------------------------------------------------------|
G|-6666666-66666666-677777-76666666------------------------------------------|
D|-xxxxxxx-xxxxxxxx-xxxxxx-xxxxxxxx------------------------------------------|
A|-4444444-44444444-455555-54444444------------------------------------------|
D|---------------------------------------------------------------------------|
    2:50      2:58
e|---------------------------------------------------------------------------|
B|---------------------------------------------------------------------------|
G|-6***7***---7-7-7----------------------------------------------------------|
D|-x***x***---x-x-x----------------------------------------------------------|
A|-4***5***---5-5-5----------------------------------------------------------|
D|---------------------------------------------------------------------------|

[guitar 3]2:37   4x
e|-----------------|----------------------------------------------------------|
B|-----------------|----------------------------------------------------------|
G|-----------------|----------------------------------------------------------|
D|-5-5-5---6-5-5-5-|-3-10/6---------------------------------------------------|
A|-5-5-5---6-5-5-5-|-3-10/6---------------------------------------------------|
D|-5-5-5---6-5-5-5-|-3-10/6---------------------------------------------------|

CHORUS 3:00
POST-CHORUS 3:20

End on...

[guitar 2]3:39
e|---------------------------------------------------------------------------|
B|---------------------------------------------------------------------------|
G|-7-7-7---------------------------------------------------------------------|
D|-x-x-x---------------------------------------------------------------------|
A|-5-5-5---------------------------------------------------------------------|
D|---------------------------------------------------------------------------|

[guitar 3]3:39
e|---------------------------------------------------------------------------|
B|---------------------------------------------------------------------------|
G|---------------------------------------------------------------------------|
D|-5-5-5---------------------------------------------------------------------|
A|-5-5-5---------------------------------------------------------------------|
D|-5-5-5---------------------------------------------------------------------|


then they do some weird effects and synthesizer things.
that's it.





Comments


Popular Vaux tabs & chords
Are You With Me Chords
Are You With Me Intro Tabs
Cocaine James Tabs
Ride Out Bitch Tabs
Set It To Blow Tabs
Set It To Blow 1 Tabs
Are You With Me Ukulele


Song lyrics



↑ Back to top | Tablatures and chords are parodies/interpretations of the original songs. You may use it for private study, scholarship, research or language learning purposes only
© 2014 AZChords.com Contact us | Privacy policy | DMCA | Add/correct tabs | Request tabs | Top 50 tabs