» » »

Vaux, Cocaine James Tabs (ver.1)

Artists:  A B C D E F G H I J K L M N O P Q R S T U V W X Y Z # 

Cocaine James Tabs (ver.1)

Vaux Tabs
 Rating:
4/5 (4 votes)
Cocaine James lessons Tabs too difficult? Try these video lessons and learn fast
                Vaux- Cocaine James

INTRO

Guitar 1
e|------------------------------------------------------------------------------|
B|------------------------------------------------------------------------------|
G|------------------------------------------------------------------------------|
D|--5p003p003p00000-[4x]--------------------------------------------------------|
A|------------------------------------------------------------------------------|
D|------------------------------------------------------------------------------|

Guitar 2
e|------------------------------------------------------------------------------|
B|------------------------------------------------------------------------------|
G|------------------------------------------------------------------------------|
D|------------------------------------------------------------------------------|
A|------------------------------------------------------------------------------|
D|-5p003p003p00000-[2x]---------------------------------------------------------|


VERSE

3x                                                            ENDING
e|----------------------------------------------------------|------------------------------|
B|----------------------------------------------------------|------------------------------|
G|----------------------------------------------------------|------------------------------|
D|-00-12-12-12-12-12-12-0-12-12-12-10-11-12-6-55555555-3560-|-3561-------------------------|
A|-00-12-12-12-12-12-12-0-12-12-12-10-11-12-6-55555555-3560-|-3561-------------------------|
D|-00-12-12-12-12-12-12-0-12-12-12-10-11-12-6-55555555-3560-|-3561-------------------------|


CHORUS

2x
e|---------------------------------------------------------------------------------------|
B|---------------------------------------------------------------------------------------|
G|---------------------------------------------------------------------------------------|
D|-12-12-12-12-12-000-15-15-15-15-15-11-11-11-12-12-12-12-12-000-17-17-17-17-15-15-14-14-|
A|-12-12-12-12-12-000-15-15-15-15-15-11-11-11-12-12-12-12-12-000-17-17-17-17-15-15-14-14-|
D|-12-12-12-12-12-000-15-15-15-15-15-11-11-11-12-12-12-12-12-000-17-17-17-17-15-15-14-14-|

e|--------------------------------------------------------------------------|
B|--------------------------------------------------------------------------|
G|--------------------------------------------------------------------------|
D|-12-12-12-12-12-000-15-15-15-15-15-11-11-11-12-12-12-12-12-000-6666-55-33-|
A|-12-12-12-12-12-000-15-15-15-15-15-11-11-11-12-12-12-12-12-000-6666-55-33-|
D|-12-12-12-12-12-000-15-15-15-15-15-11-11-11-12-12-12-12-12-000-6666-55-33-|


POST-CHORUS

e|------------------------------------------------------------------------------------------|
B|------------------------------------------------------------------------------------------|
G|------------------------------------------------------------------------------------------|
D|-5p003p003p00000--[4x]--------------------------------------------------------------------|
A|------------------------------------------------------------------------------------------|
D|------------------------------------------------------------------------------------------|


VERSE 1x w/o ending
CHORUS 2x

BRIDGE PART 1 [Guitar 1]

2x
e|---------------------------------------------------------------------------|
B|---------------------------------------------------------------------------|
G|---------------------------------------------------------------------------|
D|---------------------------------------------------------------------------|
A|---------------------------------------------------------------------------|
D|-12--12-0--15--15-11-12--12-0--17--15-14-----------------------------------|

BRIDGE PART 2

1x
e|---------------------------------------------------------------------------|
B|---------------------------------------------------------------------------|
G|---------------------------------------------------------------------------|
D|---------------------------------------------------------------------------|
A|---------------------------------------------------------------------------|
D|-12--12-0--15--15-11-12--12-0--6--5-3--------------------------------------|

BRIDGE [back-up]

e|----------------------------------------------------------------------------|
B|----------------------------------------------------------------------------|
G|----------------------------------------------------------------------------|
D|-0--------------------------------------------------------------------------|
A|-0--[play at beginning of each guitar 1 part]-------------------------------|
D|-0--------------------------------------------------------------------------|


BRIDGE PART 1 1x
BRIDGE PART 2 1x
CHORUS 3x

ENDING

2x
e|----------------------------------------------------------------------------|
B|----------------------------------------------------------------------------|
G|----------------------------------------------------------------------------|
D|-12-12-12-12-12-12-12-12-12-12-12-12-11-11-11-11-11-11-11-11-11-11-11-14-14-|
A|-12-12-12-12-12-12-12-12-12-12-12-12-11-11-11-11-11-11-11-11-11-11-11-14-14-|
D|-12-12-12-12-12-12-12-12-12-12-12-12-11-11-11-11-11-11-11-11-11-11-11-14-14-|

2x
e|---------------------------------------------------------------------------|
B|---------------------------------------------------------------------------|
G|---------------------------------------------------------------------------|
D|-12--12--12-12-12-12---11-11-11--11-11-11--11------------------------------|
A|-12--12--12-12-12-12---11-11-11--11-11-11--11------------------------------|
D|-12--12--12-12-12-12---11-11-11--11-11-11--11------------------------------|
            
Submit corrections

comments powered by Disqus
↑ Back to top | Vaux Tabs for Cocaine James. Lyrics for acoustic guitar and electric guitar. Tablatures and chords are parodies/interpretations of the original songs. You may use it for private study, scholarship, research or language learning purposes only