>
 >
Tin Pan Alley

Tin Pan Alley Bass Tabs

Vaughan Stevie Ray - Tin Pan Alley chords, tabs, tablatures, lyrics

Guitar lessons | Add/correct | Request | Top 50 tabs Artists:  A B C D E F G H I J K L M N O P Q R S T U V W X Y Z 0-9

Tin Pan Alley Bass Tabs – Vaughan Stevie Ray

CD, Sheet music, Poster

Do you like Tin Pan Alley? Share with your friends now
Bass TabsTabsTabs v2
vaughan_stevie_ray/tin_pan_alley.btab

Basstab by Jan Bjorklund, Finland; 
You are welcome to request for basstabs!
Bienvenidos a pedirme transcripciones para el bajo!

TablEdited by Jan Bjorklund for Ronald
Tuning : E A D G 	Time Signature: 6/8

 tempo 120   |            |           |            |           |            
|------------------------|------------------------|------------------------|
|------------------------|------------0-------0h2-|------------------------|
|2-------------------0---|2-----------------------|2-------------------0---|
|----------------2-------|------------------------|----------------2-------|

 |           |            |           |            |           |            
|------------------------|------------------------|------------------------|
|------------0-------0h2h|------------------------|------------0-------0h2h|
|2-----------------------|2-------------------0---|2-----------------------|
|------------------------|----------------2-------|------------------------|

 |           |            |           |            |           |            
|------------------------|------------4---2-------|------------------------|
|------------------------|--------2h4---------4---|2-----------------------|
|2-------------------0---|2-----------------------|--------------------2---|
|----------------2-------|------------------------|------------------------|

 |           |            |           |            |           |            
|------------------------|------------------------|----------------2---4---|
|2---------1h2---0-------|------------------------|2-----------4-----------|
|--------------------2---|----------------------2-|----------2-------------|
|------------------------|0-----------0-----------|------------------------|

 |           |            |           |            |           |            
|------------------------|------------------------|------------------------|
|------------------------|------------0-------2---|------------------------|
|2-------------------0---|2-----------------------|2-------------------0---|
|----------------2-------|------------------------|----------------2-------|

 |           |            |           |            |           |            
|------------------------|------------------------|------------------------|
|------------------------|------------------------|4-----------4/3-2-------|
|2-----------5/--2---0---|----------------4---5---|--------------------4---|
|------------------------|2-----------------------|------------------------|

 |           |            |           |            |           |            
|------------------------|----------------2---4---|------------------------|
|--------------------2---|2-----------4-----------|----------------------4-|
|----------------------2-|----------2-------------|2-----------5-----------|
|0-----------0-----------|------------------------|----------2-------------|

 |           |            |           |            |           |            
|------------------------|------------------------|------------------------|
|2---------3h4---2-------|------------------------|------------------------|
|--------------------5---|2-----------5-4-2---0---|----------------0---1---|
|------------------------|------------------------|2-----------2-----------|

 |           |            |           |            |           |            
|------------------------|------------------------|------------------------|
|------------------------|------------0-------2---|------------------------|
|2-------------------0---|2-----------------------|2-------------------0---|
|----------------2-------|------------------------|----------------2-------|

 |           |            |           |            |           |            
|------------------------|------------------------|------------------------|
|------------0-------2---|------------------------|------------0-------2---|
|2-----------------------|2-------------------0---|2-----------------------|
|------------------------|----------------2-------|------------------------|

 |           |            |           |            |           |            
|------------------------|------------4---2-------|------------------------|
|------------------------|--------2h4---------4---|2-----------------------|
|2-------------------0---|2-----------------------|----------------------2-|
|----------------2-------|------------------------|------------------------|

 |           |            |           |            |           |            
|------------------------|------------------------|----------------2---4---|
|2---------1/2---0-------|------------------------|--2---------2/4---------|
|--------------------2---|--------------------2---|2-----------------------|
|------------------------|0-----------0-----------|------------------------|

 |           |            |           |            |           |            
|------------------------|------------------------|------------------------|
|------------------------|------------0-------2---|------------------------|
|2-------------------0---|2-----------------------|2-----------2-------0---|
|----------------2-------|------------------------|----------------2-------|

 |           |            |           |            |           |            
|------------------------|------------------------|------------------------|
|------------0-----------|------------------------|4---------2h4---2-------|
|2-------------4-2---0---|--------------------4---|--------------------4---|
|------------------------|2-----------------------|------------------------|

 |           |            |           |            |           |            
|------------------------|------------------------|------------------------|
|2-----------2-----------|--2---------2/3/2---0---|------------0-----------|
|------------------------|2-----------------------|2-----------------------|
|--------------------0---|------------------------|------------------------|

 |           |            |           |            |           |            
|----------------2---4---|----------2h4---2-------|----------1h2-----------|
|--2---------2h4---------|--------------------4---|4---------------4---0---|
|2---------2-------------|2-----------------------|------------------------|
|------------------------|------------------------|------------------------|

 |           |            |           |            |           |            
|------------------------|------------------------|------------------------|
|----------------4-------|------------0-------2---|----------------4-------|
|2-----------2-------0---|2-----------------------|2-----------2-------0---|
|----------------2-------|------------------------|----------------2-------|

 |           |            |           |            |           |            
|------------------------|------------------------|------------------------|
|------------0-------2---|----------------4-------|------------0-------2---|
|2-----------------------|2-------------------0---|2-----------------------|
|------------------------|----------------2-------|------------------------|

 |           |            |           |            |           |            
|------------------------|------------4---2-------|------------4-----------|
|------------------------|--------2h4---------4---|2-----------------------|
|2-------------------0---|2-----------------------|----------------------2-|
|----------------2-------|------------------------|------------------------|

 |           |            |           |            |           |            
|------------------------|------------------------|------------------------|
|2---------1h2---0-------|2-----------------1-----|2-----------2h3p2---202-|
|--------------------2---|--------------------2---|------------------------|
|------------------------|0-----------------------|------------------------|

 |           |            |           |            |           |            
|------------------------|------------------------|------------------------|
|------------------------|------------0-------2---|------------------------|
|2--------------------0--|2-----------------------|2-------------------0---|
|------------------0h2---|------------------------|----------------2-------|

 |           |            |           |            |           |            
|------------------------|------------------------|------------------------|
|------------------------|------------------------|4---------3/4---2-------|
|2-----------5---2---0---|----------------3---4---|--------------------4---|
|------------------------|2-----------------------|------------------------|

 |           |            |           |            |           |            
|------------------------|----------------2---4---|------------------------|
|------------------------|2---------3h4-----------|------------0-----------|
|----------------1---2---|------------------------|2-----------------------|
|0-----------0-----------|------------------------|----------4-------------|

 |           |            |           |            |           |            
|------------------------|------------------------|------------------------|
|2-----------2h3-2---0---|------------------------|------------------------|
|------------------------|2-----------5/4-2---0---|----------------0---1---|
|------------------------|------------------------|2-----------2-----------|

 |           |            |           |            |           |            
|------------------------|------------------------|------------------------|
|------------------------|------------0---2---0-2-|------------------------|
|2-----------2-------0---|2-------2---------------|2-----------2-------0---|
|----------------2-------|------------------------|----------------2-------|

 |           |            |           |                
|------------------------|------------------------|
|------------0-------2---|--and so on...----------|
|2-----------------------|------------------------|
|------------------------|------------------------|





Comments


Popular Vaughan Stevie Ray tabs & chords
Voodoo Chile Bass Tabs
Life Without You Chords
Hug You Squeeze You Tabs
Hug You Squeeze You 1 Tabs
Lenny Tabs
Little Wing 1 Tabs
Riviera Paradise Tabs
Tightrope 1 Tabs
Tin Pan Alley Tabs
Tin Pan Alley 1 Tabs


Song lyrics



↑ Back to top | Tablatures and chords are parodies/interpretations of the original songs. You may use it for private study, scholarship, research or language learning purposes only
© 2014 AZChords.com Contact us | Privacy policy | DMCA | Add/correct tabs | Request tabs | Top 50 tabs