» » »

Vaughan Stevie Ray, Stangs Swang Bass tabs (ver.1)

Artists:  A B C D E F G H I J K L M N O P Q R S T U V W X Y Z # 

Stangs Swang Bass tabs (ver.1)

Vaughan Stevie Ray Tabs
 Rating:
4/5 (4 votes)
Stangs Swang lessons Tabs too difficult? Try these video lessons and learn fast
                Stang's Swang

--Bass Tab--

(Rough Translation. Phrase it yourself)

**Tune 1/2 step down**
Common Time

Drum intro...

G:--------------------------------------------------------------
D:--------------------------------------------------------------
A:5---------------5-----------------5----------------5----------
E:--------------------------------------------------------------

G:---------------------5-----------------4--------------3-------
D:---5-------4-4--3------3--2--2-2--2-------2--1-1---------1----
A:------------------3-----------------2-------------1-1--------1
E:3-----3-------------------------------------------------------

G:--------------------------------------------------------------
D:---------------------2---3---4---5---7--7h8--7---5---4---3----
A:-----1---3---4---5-------------------------------------------5
E:--3-----------------------------------------------------------

G:-----------------------------------------7-----------4---5----
D:---------------------2---3---2-------4-------5---7-----------5
A:------1---3---4---5--------------5----------------------------
E:--3-----------------------------------------------------------

G:--------------------------------------------------------------
D:--5---3---2-------5----------------------------------2---3---5
A:--------------5------2---3---5-------1---3---4---5------------
E:---------------------------------3----------------------------

*repeat at the asterisk
G:-----7--5--------5--3-----------------------------------------
D:--5--------4--3--------1--7--6--5-----------------------------
A:-----------------------------------------5---------------------
E:--------------------------------------------------------------

G:--------------------------------------------------------------
D:-------------2--------2---3---4---5---7--7h8--7---5---4---3---
A:-----1---3-------5-------------------------------------------5
E:--3-----------------------------------------------------------

G:-----------------------------------------7-----------4---5----
D:---------------------2---3---2-------4-------5---7-----------5
A:------1---3---4---5--------------5----------------------------
E:--3-----------------------------------------------------------

G:--------------------------------------------------------------
D:--5---3---2-------5----------------------------------2---3---5
A:--------------5------2---3---5-------1---3---4---5------------
E:---------------------------------3----------------------------

*
                                                        
G:--------------4---5--6---7-------------------5----------------
D:--5---7---8-----------------x55--3---2---5-------2---3---5----
A:--------------------------------------------------------------
E:--------------------------------------------------------------

G:-----------------------------------------------------4---5----
D:---------------------2---3---2-------4---5---6---7------------
A:------1---3---4---5--------------5----------------------------
E:--3-----------------------------------------------------------

G:----------4---5---6--777-5-------------------5----------------
D:--6---5----------------------5---3---2---5-------2---3---5----
A:--------------------------------------------------------------
E:--------------------------------------------------------------

*

G:----------------------------------------------4---5---6---7---8
D:--5-------------------2---3---4---5---7---8--------------------
A:------2---3---4---5--------------------------------------------
E:---------------------------------------------------------------

G:---------------------------------------------------------------
D:--6---5---3---2------------------------------------------------
A:------------------5-------2---3---4---5-----------2-------2---3
E:----------------------3-------------------2---3-------5--------

G:---------------------------------------------------------------
D:--------------------------2---4---5---3---2-------5------------
A:----------2---3---4---5-----------------------5-------2---3---5
E:--4---3--------------------------------------------------------

*

G:--------------------------------------------------------------
D:--------------------------------------------------------------
A:5---------------5-----------------5----------------5----------
E:--------------------------------------------------------------

G:--------------------------------------------------------------
D:---------------------2---3---4---5---7--7h8--7---5---4---3----
A:-----1---3---4---5-------------------------------------------5
E:--3-----------------------------------------------------------

G:-----------------------------------------7-----------4---5----
D:---------------------2---3---2-------4-------5---7-----------5
A:------1---3---4---5--------------5----------------------------
E:--3-----------------------------------------------------------

G:--------------------------------------------------------------
D:--5---3---2-------5----------------------------------2---3---5
A:--------------5------2---3---5-------1---3---4---5------------
E:---------------------------------3----------------------------

G:--------------------------------------------------------------
D:---------------------2---3---4---5---7--7h8--7---5---4---3----
A:-----1---3---4---5-------------------------------------------5
E:--3-----------------------------------------------------------

G:-----------------------------------------7-----------4---5----
D:---------------------2---3---2-------4-------5---7-----------5
A:------1---3---4---5--------------5----------------------------
E:--3-----------------------------------------------------------

G:--------------------------------------------------------------
D:--5---3---2-------5----------------------------------2---3---5
A:--------------5------2---3---5-------1---3---4---5------------
E:---------------------------------3----------------------------

*

*
                                                          on cue   
G:-----7--5--------5--3-----------------------------------------
D:--5--------4--3--------1--7--6--5-----------------------------
A:--------------------------------------------------------------
E:-------------------------------------------------------------3
            
Submit corrections

comments powered by Disqus
↑ Back to top | Vaughan Stevie Ray Bass for Stangs Swang. Lyrics for acoustic guitar and electric guitar. Tablatures and chords are parodies/interpretations of the original songs. You may use it for private study, scholarship, research or language learning purposes only