>
 >
So Excited

So Excited Guitar Tabs

Vaughan Stevie Ray - So Excited chords, tabs, tablatures, lyrics

Guitar lessons | Add/correct | Request | Top 50 tabs Artists:  A B C D E F G H I J K L M N O P Q R S T U V W X Y Z 0-9

So Excited Guitar Tabs – Vaughan Stevie Ray

CD, Sheet music, Poster

Do you like So Excited? Share with your friends now
Tabs
SO EXCITED (Live)
As recorded by Stevie Ray Vaughan and Double Trouble
(From the Video LIVE AT THE EL MACAMBO)


Gtr I (Eb Ab Db Gb Bb Eb) - 'Stevie Ray Vaughan'

Q=126(8=s8)
 4/4
  Gtr I
                 |-3-|                |-3--|
   E     E E E E E E E E  E   E E E E E E  E  E E
|-12\-||-----------------!x-|---------------------|
|--x\-||-----------------!x-|---------------------|
|--x\-||-----------------!x-|-------------(5)-----|
|--x\-||-x---7-7-5-7-5---!x-|-----7-7-5-7--5----x-|
|-----||-x-------------7----|-----------------7-7-|
|-----||-5-5----------------|-5-5---------------x-|


          |-3--|                |-3-|
  E E E E E E  E  E E   E E E E E E E E E
|---------------------|--------------------|
|---------------------|--------------------|
|-------------(5)-----|--------------------|
|-----7-7-5-7--5----x-|-----7-7-5-7-5------|
|-----------------7-7-|---------------7-7--|
|-5-5---------------x-|-5-5----------------|


          |-3-|                   |-3-|
  E E E E E E E     E E   E E E E E E E     E  E
|-----------------------|------------------------|
|-----7-7-5-7-----------|-----7-7-5-7-5b5.5------|
|-----7-7-5-7-5b5.5---x-|-----7-7-5-7-5b5.5---!x-|
|-------------------7-7-|-------------------7-!7-|
|-5-5-------------------|-5-5-----------------!x-|
|-----------------------|---------------------!x-|


          PM--|
          |-3-|                |--3--|
  E E E E E E E E  E   E E E E E  E  E E E
|-----------------!x-|----------------------|
|-----------------!x-|----------------------|
|-----------------!x-|----------------------|
|-----7-7-5-7-5---!x-|-----7-7-5h(7)-5------|
|---------------7----|-----------------7-6s=|
|-5-5----------------|-5-5------------------|


          |-3--|                   |-3--|
  E E E E E E  E     E E   E E E E E E  E     E E
|------------------------|------------------------|
|-----9-9-7-9-(7)--------|-----7-7-5-7-(5)------x-|
|-----9-9-7-9--7b7.5---x-|-----7-7-5-7--5b5.5---x-|
|--------------------9-9-|--------------------7-x-|
|-7-7--------------------|-5-5--------------------|
|------------------------|------------------------|


          |-3-|                   |----3----|
  E E E E E E E E E   E E E E E E E     E   E
|-----------------x-|-----------------------5-||
|-----------------x-|-----------x-------5-----||
|-------------5---x-|-----------x-7b9==(7)r---||
|-----7-7-5-7-5-----|-----7-7-5---------------||
|---------------7---|-------------------------||
|-5-5---------------|-5-5---------------------||


                                          ~~~                               ~~~
         |----------3----------|                         |----3----|             |--3--|
  a     +Q   a     +Q   a     +Q   a     +H       +E   E E     E   E a     +Q   +E   E E
|-----------------------------------------------|------x-----------5-----------------x---|
|-8b10==(8)r-8b10==(8)r-8b10==(8)r-8b10==(8)----|-(8)r-x-------5-----8b10==(8)--(8)r-5---|
|-----------------------------------------------|--------7b9==(7)r---------------------7-|
|-----------------------------------------------|----------------------------------------|
|-----------------------------------------------|----------------------------------------|
|-----------------------------------------------|----------------------------------------|


                PM--|
  |---3---|     |-3-|                         |--3--|
  E     E E E E E E E E  E   E E E E E  E    +E   E E
|-----------------------!x-|-----------!x-----------5-|
|-----------------------!x-|-----------!x---------5---|
|-5b5.5-----------------!x-|-----------!7b9==(7)r-----|
|-----------7-7-5-7-5---!x-|-----7-7-5----------------|
|---------x-----------7----|--------------------------|
|---------5----------------|-5-5----------------------|


                                          ~~~                                 ~~~
         |----------3----------|                           |----3----|             |--3--|
  a     +Q   a     +Q   a     +Q   a     +H       +E    E  E     E   E a     +Q   +E   E E
|-----------------------------------------------|------(5)-----------5---------------------|
|-8b10==(8)r-8b10==(8)r-8b10==(8)r-8b10==(8)----|-(8)r-(5)-------5-----8b10==(8)--(8)r-5---|
|-----------------------------------------------|----------7b9==(7)r---------------------7-|
|-----------------------------------------------|------------------------------------------|
|-----------------------------------------------|------------------------------------------|
|-----------------------------------------------|------------------------------------------|


          |-3-|                           |--3--|
  E E E E E E E E   E    E E E E E  E    +E   E E
|----------------------|-----------!x-----------5--|
|-----------------(15)S|=x---------!x---------5----|
|-5---------------(15)S|=x---------!7b9==(7)r------|
|-----7-7-5-7-5---(15)S|=x-x-7-7-5-----------------|
|---x-----------7------|---0-----------------------|
|---5------------------|---------------------------|


  |---3---|      |--3--| |-3--|             |----3----| |---3---| |----3----| |----3----|
  E     E E     +E   E E S E. E     E  E    E     E   E E     E E E     E   E E    +E   E
|-------5------------5-7-7p5-----------x--|-----------5-8b8.5-5-------------5-------------|
|-8b8.5---8b10==(8)r----------8b8.5-5-(5)-|-------5-------------5-------5-----------------|
|-----------------------------------------|-7b9==(7)r-------------7b9==(7)r---7b9==(7)r-7-|
|-----------------------------------------|-----------------------------------------------|
|-----------------------------------------|-----------------------------------------------|
|-----------------------------------------|-----------------------------------------------|


  ~                                      ~
        |----3----| |---3----|   |-3-|            |---3----|   |-3-|
  E  E  E     E   E E  E    +E   E E E   Q  a E E E  E    +E   E E E
|---(0)------(5)--5--------------------|-------------------------5-----||
|---(0)-------5-----8-(8)--------------|------------!7---------5---5---||
|-5-----7b9==(7)r------7b8==(7)r-7-5---|-5--x-------!7b8==(7)r---------||
|------------------------------------7-|----x-----0-!x-----------------||
|--------------------------------------|------7-7----------------------||
|--------------------------------------|-------------------------------||


  |--3---|                   |----3----|
  E     +Q  +E   E     +Q   +Q  a     +E
|-----------------------------------------|
|-8b10==(8)-(8)r-8b10==(8)r=(8)-8b10==(8)r|
|-----------------------------------------|
|-----------------------------------------|
|-----------------------------------------|
|-----------------------------------------|

  |--3---|   |-----3------|      |-3--|       |----3----|
  Q     +E  +E  a     +E  E     +E. S E      +S  S     +Q
|-----------------------------------------------------------|
|=8b10==(8)r(8)-8b10==(8)r8b10==(8)r8-8pb10==(8)r8b10==(8)r-|
|-----------------------------------------------------------|
|-----------------------------------------------------------|
|-----------------------------------------------------------|
|-----------------------------------------------------------|


         ~~~~
  a     +H.        E S    +S    +Q   +E     +E  +E  E    +Q
|-----------------!5----------|---------------------5--------------|
|-8b10==(8)r------!5----------|---------------------5b6==(5)b7=====|
|--------------------7b9==(7)-|-(7)r=(7)b9==(7)r(7)----------------|
|-----------------------------|------------------------------------|
|-----------------------------|------------------------------------|
|-----------------------------|------------------------------------|


        |-3-| |--3--|   |-3-|       |----3----| |---3---|   |-3-|
  +Q   +E   Q E    +Q   E E E   E E E     E   E E E    +E   E E E
|-----------------------------|---x-----------5-------------------|
|-(5)--(5)r-------------5-----|---x-------5-----8-----------------|
|-----------7-5b7==(5)r-5-----|-----7b9==(7)r-----7b9==(7)r-7-5---|
|-------------------------7---|-7-------------------------------7-|
|---------------------------0-|-x---------------------------------|
|-----------------------------|-----------------------------------|


  ~                                               ~
              |------3------|   |-3-| |----3----|       |----3----|
  Q  E Q   E  S    +E    S  E   E E E E    +E   E E  E  E     E   E
|-----------------------(5)---|-5-------------------(0)-----------5-|
|------x\-------------------5-|---8-5---------------(0)-------5-----|
|-5----x\--x/-7b9==(7)r-------|-------7b9==(7)r-7-5-----7b9==(7)r---|
|----7-x\--x/-----------------|-------------------------------------|
|----------x/-----------------|-------------------------------------|
|-----------------------------|-------------------------------------|


                    ~
  |---3---| |--3--|       |----3----|   |----3----| |---3---| |---3---| |---3---|
  E     E E S S E E E  E  E     E   E   E      E  E E     E E E     E E E     E E
|-------5-7-5h6p5-----(x)-----------5-|-8b8.5--5----8b8.5-5-5-8b8.5-5-5-8b8.5-5-5-|
|-8b8.5-----------8-5--x--------5---5-|-------(5)-5---------5---------5---------5-|
|-------------------------7b9==(7)r---|-------------------------------------------|
|-------------------------------------|-------------------------------------------|
|-------------------------------------|-------------------------------------------|
|-------------------------------------|-------------------------------------------|


  |---3---| |---3---| |----3-----|  |----3-----|    |---3---| |---3---| |---3---| |--3---|
  E     E E E     E E E      E   E  E      E   E    E     E E E     E E E     E E E     +Q
|-8b8.5-5-5-8b8.5-5-5-8b8.5--5--(5)-8b8.5--5--(5)-|-8b8.5-5-5-8b8.5-5-5-8b8.5-5-5-8b10==(8)-||
|---------5---------5-8b8.5-(5)--5--8b8.5-(5)--5--|-8b8.5-5-5-8b8.5-5-5-8b8.5-5-5-----------||
|-------------------------------------------------|-----------------------------------------||
|-------------------------------------------------|-----------------------------------------||
|-------------------------------------------------|-----------------------------------------||
|-------------------------------------------------|-----------------------------------------||


        ~                           ~
           |-3-|       |---3----|                |-3-|
  +Q    Q  E E E a    +S  +S  E E   Q  E   Q   E E E E
|-(8)r--8--5----------------------|-------12\--------x-|
|------------8-5------------------|----7/-12\--xs7p5-x-|
|----------------7b9==(7)r(7)-5---|-5--7/-12\--xs7p5---|
|-------------------------------7-|----7/--------------|
|---------------------------------|--------------------|
|---------------------------------|--------------------|


             ~
  |--3---|      |-3-| |----3----|   |3-|  |--3--|  |---3----|  |--3---|
  E     +Q   Q  E E E E     E   E   E  Q  E  E  E  S  S  E  E  E  E   E
|------------8--5-----------5---5-|------12-14-14-14h16p14----14----------|
|-8b10==(8)r-8----8-5-------5---5-|-5s12-12-------12-------14-14-14\------|
|---------------------7b9==(7)r---|-5s12-12----------------14----14\-(x)--|
|---------------------------------|---------------------------------------|
|---------------------------------|---------------------------------------|
|---------------------------------|---------------------------------------|


  |---3----|  |-----3------|  |---3----|       |----3-----|
  S  S  E  E  E       E    E  S  S  E  E       E  E       E
|---------10---------10---12-10h11p10---------10---------10---|
|------10----13b15==(13)r-------------13b13.5----13b15==(13)r-|
|-xs11--------------------------------------------------------|
|-------------------------------------------------------------|
|-------------------------------------------------------------|
|-------------------------------------------------------------|


   |----3-----|  |----3-----| |-3--|  |----6----|
   E       E  E  E S  T  T  E E  E E  S S S S S S
|---------10-12-11---10h11p10s8-10s8--------5-----|
|-13b13.5----------------------------10p8s5---8p5-|
|-------------------------------------------------|
|-------------------------------------------------|
|-------------------------------------------------|
|-------------------------------------------------|

                              ~~~~~~~~
   |-------3--------| |---3---|
   E a    +S  +S  S S S S    +Q  +Q     E E
|-------------------------------------^5-------|
|-------------------------------------^5-------|
|---7b9==(7)r(7)-5---5h7b9==(7)-(7)r--^x-7b9===|
|------------------7---------------------------|
|----------------------------------------------|
|----------------------------------------------|

        |--3--|   |--3--| |----3----|
  +Q    E    +Q   S S E E E     E   E
|-----------------------------------5-|
|-------------------------------5-----|
|-(7)r--7b9==(7)r-7p5---5-7b9==(7)r---|
|---------------------7---------------|
|-------------------------------------|
|-------------------------------------|


  |----3-----|  |-3--| |----3----| |-----3------|   |--3--| |--3--| |--3--| |--3--|
  E      E   E +E  a Q E    +E   E S    +S  +E  E   S S E E S S E E S S E E S S E E
|--------5---7-(7)-6s5----------------------------|-----------------------------------|
|-8b10==(8)r-----------8b9==(8)r-5--------------x-|-6s8-8-8-6s8-8-8-6s8-8-8-6s8-8-8---|
|----------------------------------7b9==(7)r(7)-5-|-7s9-9-9-7s9-9-9-7s9-9-9-7s9-9-9---|
|-------------------------------------------------|-----------------------------------|
|-------------------------------------------------|-----------------------------------|
|-------------------------------------------------|-----------------------------------|


  |--3--|  |--3--|  |--3--|  |--3--|    |--3--|  |--3--|  |---3----|  |--3--|
  E  E  E  E  E  E  E  E  E  E  E  E    E  E  E  E  E  E  E  S  S  E  E  E  E
|------------------------------------|----12-12-12-12-12-12-12s17-17-17-17-17-||
|-x-12s15-15-15-15-15-15-15-16-16-16-|-16-12-12-12-12-12-12-12s17-17-17-17-17-||
|-x-13s16-16-16-16-16-16-16-17-17-17-|-17-------------------------------------||
|------------------------------------|----------------------------------------||
|------------------------------------|----------------------------------------||
|------------------------------------|----------------------------------------||


                ~~~~~
   |---3---|            |3-|                           |-----3------|
   E      +Q   +H       Q  E          +E    E E E E E  E       E    E
|----------------------17----------|-------------------------------17-|
|-20b22==(20)-(20)r----------------|----------------x-17------17------|
|-------------------------19b21.5==|=(19)r\-x-xsxsx-x-19b21==(19)r----|
|----------------------------------|--------x-xsxsx-------------------|
|----------------------------------|----------------------------------|
|----------------------------------|----------------------------------|


           ~~~~~~~~
   |---3---|          |---3----|       |--3---|
   E      +Q   +Q    +E    E   E      +E   E  E
|------------------------------------------------|
|-20b22==(20)-(20)--(20)r-----19b21==(19)-19-19r-|
|-------------------------(0)--------------------|
|------------------------------------------------|
|------------------------------------------------|
|------------------------------------------------|



   E      +E    E      +E   E      +E   E      +E
|---------------------------------------------------|
|-20b22==(20)r-20pb22r(20)-20pb22r(20)-20pb22r(20)--|
|---------------------------------------------------|
|---------------------------------------------------|
|---------------------------------------------------|
|---------------------------------------------------|


                                              ~~~~~~~~~~~
                                                           |--3--|  |-----3------|
   E        E       Q       +Q     E  a      +E     +Q     E  E  E  E       E    E a E E
|------------------------------------------------|--------17--------------------17-------|
|-20pb22.5-20pb22==20b24===(20)r--20-20b22==(20)-|-(20)r-----20-17---------17------xs7-7-|
|------------------------------------------------|-----------------19b21==(19)r----------|
|------------------------------------------------|---------------------------------------|
|------------------------------------------------|---------------------------------------|
|------------------------------------------------|---------------------------------------|


  ~                                                  ~
         |3|     |--3--|   |-----3-----| |----3----|     |----3----|
  Q  E E E Q     E   E E   S    +S   E E E    +E   E E E E     E   E
|--------------------5---|-----------5-----------------x-----------5-|
|--------x-x-----5-----5-|-8b9==(8)r---8---------------x-------5-----|
|-5------x-7b9==(7)r-----|---------------7b9==(7)r-7-5---7b9==(7)r---|
|----7---x-x-------------|-------------------------------------------|
|------7-----------------|-------------------------------------------|
|------------------------|-------------------------------------------|


  |-----3-----|  |-3--| |----3----| |-----3------|   |--3--| |--3--| |--3--| |-3-|
  S    +S   E E +E  a Q E    +E   E S    +S  +E  E   S S E E S S E E S S E E E E E
|-----------5-7-(7)-6p5----------------------------|-------------------------------|
|-8b9==(8)r-------------8b9==(8)r-5----------------|-7s8-8-8-7s8-8-8-7s8-8-8-------|
|-----------------------------------7b9==(7)r(7)-5-|-6s9-9-9-6s9-9-9-6s9-9-9-7-6---|
|--------------------------------------------------|-----------------------------5-|
|--------------------------------------------------|-------------------------------|
|--------------------------------------------------|-------------------------------|


                                           ~
        |----3----| |----3----|   |-3--|              |--3--|
  E  E  E     E   E E E S    +S  +E  E E   Q  E Q   E E   E E
|-5-(5)-----------5----------------------|------------------0--||
|---(5)-------5-----8-5------------------|---------------/x-0--||
|-------7b9==(7)r-------7b8==(7)r(7)-7-7-|-5-------------/x-0--||
|----------------------------------------|----7----------------||
|----------------------------------------|------7\--xsx/-------||
|----------------------------------------|----------xsx/-------||


   E  E  E   q   E E  E    E E  E   q   E E  E
|-12-!x-----12\-------0-|----x-----12\-------0-|
|-12-!x-----12\-------0-|----x-----12\-------0-|
|-12-!x-----12\--0-x--0-|-12-x-----12\--0-x--0-|
|-11-!x-(0)-11\--0-x--0-|-11-x-(0)-11\--0-x--0-|
|----!0--0-------0-x----|-------0-------0-x----|
|------------------2/---|-----------------2/---|


                                       |--3---|
   E E  E   q   E E  E    E E  E   E  +Q   Q  Q
|-12-x-----12\-------0-|-12-x-----12-(12)-15-16--|
|-12-x-----12\-------0-|-12-x-----12-(12)-15-16--|
|-12-x-----12\--0-x--0-|-12-x--x--12-(12)-15-16--|
|-11-x-(0)-11\--0-x--0-|-11-x-(0)-11-(11)-14-15--|
|----0--0-------0-x----|-------0-----------------|
|-----------------2/---|-------------------------|


                                      |--3--|
   Q   E  q   E E  E    E  E   E   E  Q  Q  Q
|-17--!x-17\-------0-|-17--x------17\-x-10-11-|
|-17--!x-17\-------0-|-17--x---x--17\-x-10-11-|
|-17--!x-17\--0-x--0-|-17--x---x--17\-x-10-11-|
|-16--!0-16\--0-x--0-|-16--x---x--16\-x--9-10-|
|-----!0------0-x----|----(0)-(0)-------------|
|---------------2/---|------------------------|


                                   |--3---|
   E E E  q   E E  E    E E E  E  +Q   Q  Q
|-12-x---12\-------0-|-12-x---12-(12)-15-16-|
|-12-x---12\-------0-|-12-x---12-(12)-15-16-|
|-12-x-x-12\--0-x--0-|-12-x-x-12-(12)-15-16-|
|-11-x-x-11\--0-x--0-|-11-x-x-11-(11)-14-15-|
|----0-0------0-x----|----0-0---------------|
|---------------2/---|----------------------|


            |-3-|             |--3--|
   E E E  E Q Q Q    E E E  E Q  Q  Q
|-12-x---12---8-9-|-10-x---10---10-11-|
|-12-x-x-12---8-9-|-10-x---10---10-11-|
|-11-x-x-11---7-8-|--9-x-x--9---10-11-|
|-12-x-x-12---8-9-|-10-x-x-10----9-10-|
|-----------------|------x------------|
|-----------------|-------------------|


   E  E  E   q   E E  E    E  E E H        E
|-12-!x-----12\-------0-|-12-!x-----------!x-||
|-12-!x-----12\-------0-|-12-!x-----------!x-||
|-12-!x-----12\--0-x--0-|-12-!x-----------!x-||
|-11-!x--x--11\--0-x--0-|-11--------------!x-||
|----!x-(0)------0-x----|-------7-5tr7----!x-||
|------------------2/---|--------------------||


                    PM----------|             ~
  |-----3-----|   |-3-|     |-3-|       |-3-|
  e E S      +S   E E E E E E E E   E E E E E E E E  E
|---------------------------------|-----------------!x-|
|---------------------------------|-----------------!x-|
|-----7b8.5==(7)r---7-5-7-5-------|-----------5-----!x-|
|-----------------------------7-5-|-7-5---7-5-------!x-|
|-5-------------------------------|-----------------!x-|
|---------------------------------|--------------------|


                                    ~     ~~~~~~
  |-----3-----|   |-3-|     |-3-|       |-3--|  |-----7-----|
  e E S      +S   E E E E E E E E   E E S S +Q  S S S S S S S E  E
|---------------------------------|-------------0---------------10-|
|---------------------------------|---------------x-------------10-|
|-----7b8.5==(7)r---7-5-7-5-------|-----5h7-(7)-----5-----------10-|
|-----------------------------7-5-|-7-7---------------7-5----------|
|-5-------------------------------|-----------------------7-5-x----|
|---------------------------------|---------------------------x----|


        |--3--|  |-----6------|              |--3--|  |-----6------|
  E  E  E  E  E  S  S  S  S   E E  E   E  E  E  E  E  S  S  S  S   E E  E
|----------------------------------x-|----------------------------------x-|
|------------10-------------------10-|------------10-------------------17-|
|------10-12----12p10-------------10-|------10-12----12p10-------------17-|
|---12----------------12p10----------|---12----------------12p10----------|
|---------------------------h12-x----|---------------------------h12-x----|
|-------------------------------x----|-------------------------------x----|


                                                      ~~
           |-3-|                             |--3--|       |--3--|  |--3--|
  Q        E   Q     E  E  Q                 E  E  E  E E  E  E  E  E  E  E
|-------------17----17--------------------|---------------------------17-19--|
|-------------------------20--------------|---------------------17-20--------|
|------17-19-----20s19-17----19b20==(19)r-|-19-17---------17-19--------------|
|---19------------------------------------|-------19-19-x--------------------|
|-----------------------------------------|----------------------------------|
|-----------------------------------------|----------------------------------|
  E  E  S  E.     E  E  E  E  E      +E
     |--3--|               |----3-----|


                                        ~~~~
   |--3---|  |--3--|      |---3---|          |-3-| |-3-|     |--3--|
   S  E.  E  E  E  E  E E E E    +E    +Q    E E E E E E    +E   E E
|-18p17--------17--------------------|-------5---5-------------------|
|--------20-17----20\----------------|---------5---8-5---------------|
|---------------------7-5---7b9==(7)-|-(7)r------------7b9==(7)r-7-7-|
|-------------------------7----------|-------------------------------|
|------------------------------------|-------------------------------|
|------------------------------------|-------------------------------|


               ~~
  E    +Q    E Q.   E   S S  S S E E E E Q
|---------------------|----------------x-----||
|---------------------|----------------x-----||
|-5b6==(5)r---------5-|----------------x-----||
|------------7-7------|-7p5------------------||
|---------------------|-----h7-5-7-7---------||
|---------------------|----------------------||


        |--3--|                 |--3---|
  E  E  E  E  E  E  E Q    E  E S  E.  E  a  E  E  Q
|---17-17-17----17-17----|---17---17-----17----17----------|
|------------------------|---------------------------------|
|------17-19----17-19----|---19---17--19-17h19-19-17b17.5--|
|---19-------19----------|---------------------------------|
|------------------------|---------------------------------|
|------------------------|---------------------------------|


       |--3---|
  E  E S  E.  E  a   E   E  E  E    E  E  S  S  E  E  S  S  E  E
|---17---17--17-17s(18)-17-17-17-|----17-------------17----17------|
|--------------------------------|----17---------------------------|
|--------17--19-19s=20--17-19-17-|-19----17-19----17-19s20-19-17---|
|---19---------------------------|-------------19------------------|
|--------------------------------|---------------------------------|
|--------------------------------|---------------------------------|


   |--------5---------|       |--3--|
   E       E    E  E  E       E  E  E  S  S  S  S
|--------------17---------------------------------|
|---------17------17-20b20.5-20-17----------------|
|-19b21==(19)r---------------------20-19-17----17-|
|-------------------------------------------19----|
|-------------------------------------------------|
|-------------------------------------------------|


   |--------5---------|  |------5-------|              |----6----|
   S       S    S  S  S  S  T  T  S  S  S  S  S  S  S  S S S S S S
|--------------17-------19-17h18p17-------20-17---------------------|
|---------17------20-17-------------20-17-------20-17\--------------|
|-19b21==(19)r-----------------------------------------7-5----------|
|----------------------------------------------------------7-5------|
|--------------------------------------------------------------7-5--|
|-------------------------------------------------------------------|


                                                        ~
  |-------6-------| |---6---|             |3|   |-3-|      |-3-| |3| |-3-|
  S    +S   S S S S S S S S E a S S S S a E S a S S S   Q  E E E E Q E E E
|-------------5---------------------------------------|---------------------|
|-----------5---8-5---------8---------------5---------|---------------------|
|-7b9==(7)r---------8-7-5-----8s7-5---5-8s9---8s7-5---|-5-------------------|
|-------------------------7---------7---------------7-|----7-5--------------|
|-----------------------------------------------------|--------7-6-5-4-5-6--|
|-----------------------------------------------------|---------------------|


  |-3-| |-3-|     |-3-|   |---3---|   |---3---| |--3--| |---3---|
  E E E E E E E E E E E   E E     E   E E     E E S S E E     E E
|-----x-------7---------|-------------5-------5-7-5h6p5---------8b8.5-|
|-----x-----------------|-5-------5-----8b8.5-----------8b8.5-5-------|
|---------7-----7---7---|-5-7b9==(7)r---------------------------------|
|-----------6-----------|---------------------------------------------|
|-6s7---7---------x---x-|---------------------------------------------|
|-----------------------|---------------------------------------------|


  ~                                    ~
       |----3----| |-3-|     |--3--|          |---3---|    |--3---|
  Q  a E     E   E E E E    +E   E E   Q  E E E E    +E    E   E  E
|-5--x-----------5-------------------|--------------------(5)--5-----||
|----x-------5-----8-5---------------|---------------------5--(5)-x--||
|------7b9==(7)r-------7b9==(7)r-7-7-|-5--------7b9==(7)r------------||
|------------------------------------|----7--------------------------||
|------------------------------------|------7------------------------||
|------------------------------------|-------------------------------||


                        ~~~~~~~
                     |3-|
    a      +H.       E  Q    Q   E E     H
|-^10b12==(10)r------8----|--------8b8.5------|
|-^-x------------------10-|-10--10------------|
|-^-x---------------------|-------------------|
|-^-x---------------------|-------------------|
|-------------------------|-------------------|
|-------------------------|-------------------|


    a      +H      +E   +E    S      +E.    +E   E  a      +Q    +E   E      +E   +E
|-^10b12==(10)----(10)r(10)-^10b12==(10)-|-(10)r10-10b11==(10)r=(10)-10b12==(10)-(10)r--|
|-^10b12==(10)----(10)r(10)-^10b12==(10)-|-(10)r10-10b11==(10)r=(10)-10b13==(10)-(10)r--|
|-^-x------(x)----(10)------^-x------(x)-|--(x)-----------------------------------------|
|-^-x------(x)----(10)------^-x------(x)-|--(x)-----------------------------------------|
|----------------------------------------|----------------------------------------------|
|----------------------------------------|----------------------------------------------|


                ~~~~~~~~~
                                 |-----3------|    |-3--|  |-3-|
  E     +E   S  E.  Q  Q    E  E E  S        +E.   E E  E  E E E
|-9b12==(9)r-8---------8--|------8-10b12.5==(10)r-10-8-----------|
|--------------10--10-----|---10-----------------------10-10-8---|
|-------------------------|------------------------------------9-|
|-------------------------|--------------------------------------|
|-------------------------|--------------------------------------|
|-------------------------|--------------------------------------|


        ~~~                  ~~~
  |--3--|
  E    +Q  +H      E E      +H     +E   E  E E
|-------------------------|------------------------|
|------------------8------|-------------x-^8-------|
|-7b9==(7)-(7)r------7b9==|=(7)----(7)r-x----7b9===|
|-------------------------|-------------x-^x-------|
|-------------------------|------------------------|
|-------------------------|------------------------|


   ~~~~          ~~~~           ~~~~          ~~~~
  +Q    E E     +Q    E E      +Q    E E     +Q    E E
|-------5-------------5------|-------5-------------5------|
|-------5-8b10==(8)r--5------|-------5-8b10==(8)r--5------|
|-(7)r----x-------------7b9==|=(7)r----x-------------7b9==|
|-----------------------x----|-----------------------x----|
|----------------------------|----------------------------|
|----------------------------|----------------------------|


   ~~~~           ~~~               ~~~~
                                            |----3-----|
  +H.       a    +Q     +Q    a    +Q.    E E     E    E
|---------------------|-------------------x------(5)---5---||
|---------------------|-------------------x-------5---(5)--||
|-(7)r------7b9==(7)--|-(7)r--7b9==(7)r---x-7b9==(7)r------||
|---------------------|------------------------------------||
|---------------------|------------------------------------||
|---------------------|------------------------------------||


                                           ~~~~~~~                             ~~~
                                 |----3----|                |---3-----|            |--3--|
  S    +E.  a     +E   a    +E  +S   E    +E. +Q     +E   E E    E    E  S    +E. +E   E E
|--------------------------------------------------|------5-----------5----------------x---|
|-8b10=(8)r-8b10==(8)r-8b10=(8)-(8)r-8b10=(8)-(8)--|-(8)r-5------5---(5)-8b10=(8)-(8)r-5---|
|-x---------x----------x-------------x-------------|--------7b9=(7)r---------------------7-|
|--------------------------------------------------|---------------------------------------|
|--------------------------------------------------|---------------------------------------|
|--------------------------------------------------|---------------------------------------|


  |--3---|     |-3-| |3-|                    |--3--|
  q      E E E E E E Q  E    E E E E E E    +E   E E
|--------------------------|-----------------------5---|
|-----------------------x\-|---------------------5-----|
|-5b5.5-----------------x\-|-----------7b9==(7)r-------|
|-------!x-7-7-5-7-5----x\-|-----7-7-5-----------------|
|-------!x-----------7/----|---x-----------------------|
|-------!5-----------------|---5-----------------------|


                                              ~~~~~~~
                                   |----3-----|
  S     +E.  a     +E   a     +E  +S   E     +E. +Q
|-----------------------------------------------------|
|-8b10==(8)r-8b10==(8)r-8b10==(8)-(8)r-8b10==(8)-(8)--|
|-x----------x----------x--------------x--------------|
|-----------------------------------------------------|
|-----------------------------------------------------|
|-----------------------------------------------------|


                            ~~~
         |----3----|            |--3--|   |---3----|
  +E   E E     E   E S     +E. +E   E E   E E     +E  +H.
|------5-----------5----------------x---|-----------------------|
|-(8)r-5-------5---5-8b10==(8)-(8)r-5---|-----------------------|
|--------7b9==(7)r--------------------7-|-5-7b10==(7)r(7)b9=====|
|---------------------------------------|-----------------------|
|---------------------------------------|-----------------------|
|---------------------------------------|-----------------------|


                    ~
   |-3--|                 |----3----|   |---3---| |--3--|         |----3----|
  +E  E E    +E   E E  E  E     E   E   E     E E S S E E     E E E     E   E
|----------------------0--------5---5-|-------5-7-5h6p5-----------------5---5-|
|---------------------(0)-------5---5-|-8b8.5-5---------8b8.5-5-5-------5-----|
|-(7)r7p5b7==(5)r-5-------7b9==(7)r---|---------------------------7b9==(7)r---|
|-------------------7-----------------|---------------------------------------|
|-------------------------------------|---------------------------------------|
|-------------------------------------|---------------------------------------|


                                 ~~~
                                      |3-|
  a  S      +E.  S       +E.  S  E.  +Q  E
|-9s10b12==(10)r-8b10.5==(8)r-8------------|
|-------------------------------10--(10)---|
|----------------------------------------x-|
|----------------------------------------x-|
|----------------------------------------x-|
|------------------------------------------|


                                    |----3----|
  E  a      +E   E S     +S   S S E S    +E.  E
|---10b12==(10)r-8-9pb10r(9)--------------------|
|----------------------------10-8---------------|
|-x-------------------------------9-7b9==(7)r-7-|
|-x---------------------------------------------|
|-x---------------------------------------------|
|-----------------------------------------------|


  ~
  |-3-|  |3-|            |---3---|
  Q S S  Q  E  +H        E   E   E   H.
|---0------12-(12)----|-14p=12-----!12-----*|
|---0------12-(12)----|-12-(12)----!12-----*|
|-5-0------12-(12)----|-12-(12)-12-!12-----*|
|---0------11-(11)----|---------11-!11-----*|
|---------------------|------------!12-----*|
|-----2s11-12-(12)----|--------------------*|





Comments


Popular Vaughan Stevie Ray tabs & chords
Crossfire Chords
The House Is Rockin Chords
Tightrope Chords
I Wanna Testify Tabs
Life By The Drop Tabs
Life Without You Tabs
Lovestruck 1 Tabs
Mary Had A Little Lamb 1 Tabs
Rivera Paradise 1 Tabs
Scuttle Buttin 1 Tabs


Song lyrics



↑ Back to top | Tablatures and chords are parodies/interpretations of the original songs. You may use it for private study, scholarship, research or language learning purposes only
© 2014 AZChords.com Contact us | Privacy policy | DMCA | Add/correct tabs | Request tabs | Top 50 tabs