>
 >
I Wanna Testify

I Wanna Testify Guitar Tabs

Vaughan Stevie Ray - I Wanna Testify chords, tabs, tablatures, lyrics

Guitar lessons | Add/correct | Request | Top 50 tabs Artists:  A B C D E F G H I J K L M N O P Q R S T U V W X Y Z 0-9

I Wanna Testify Guitar Tabs – Vaughan Stevie Ray

CD, Sheet music, Poster

Do you like I Wanna Testify? Share with your friends now
Tabs
I WANNA TESTIFY BY STEVIE RAY VAUGHAN

GUITAR TUNED DOWN 1/2 STEP

8X
------------------------
-------------------8--8-
-------------------7--7-
-------------------6--6-
-----5-5-6-6-7-7---7--7-
-7-7-------------0------

--------------------
--------------------
---------8~--8----0-
---------7~--7--0---
--------------------
-4-5-6-7------------

-----------------------------------------12-----------------------------
--------------------------------------12----15--------------------------
-14(16)p12---12(13)~--------0--14(16)---------14p12---12~---------------
----------14----------14p12-0----------------------14------14p12--12-14-

-----------12----12-------12----12----------------------------------12-15-
---------12---12---15(17)----12----15-------15-------------------15-------
---14(16)-----------------------------14(16)---14p12----12-14(16)---------
-0---------------------------------------------------14-------------------

-(17)~--12--------------12-----------------------------12-15(17)-(16)-
-----------15--------12----15------15---------------------------------
--------------14(16)---------14(16)--14-12----12-14(16)---------------
-------------------------------------------14-------------------------

-12----------------------------------12-----------------------------------
----15-------15-------------------12----12-15(17)p15-12-------------------
------14(16)----14p12----12-14(15)----------------------15-14-13----12-14-
----------------------14-----------------------------------------14-------

-14(15)-12-14-12(13)----------------------------------------------12-12------
--------------------14p12----12-14-12(13)----------------12-14---------14p12-
---------------------------14--------------14-13p12--------------------------
----------------------------------------------------15-12-------12-----------

-----14\-----------|-17(19)~~-15-17(19)-15-17-----15----------12-----------
-----14\-----------|--------------------------17~----17p15\12----12-15(17)-
-12--14\--0--0--0--|-------------------------------------------------------
-12--13\--0--0--0--|-------------------------------------------------------
-14----------------|-------------------------------------------------------
-------------------|-------------------------------------------------------

----------------------------------------------------12---12-15(16)-12-
-15-15-----15----------15(17)---------------------12--12--------------
----14(16)----14-12----------14(15)--12(13)-14(16)--------------------
--------------------14------------------------------------------------

-----------------------------------------------------12---14---12----
-15-15----------------12----12-14-(15)-14------------12---14---12-14-
----14(16)14-12-------12----12-14-(16)-14------------12---14---12-14-
----------------14-14-12-14---------------14---12h14----14---14------
-------------------------14------------------0-----------------------
---------------------------------------------0-----------------------

-14(15)--12--------------------------------------------12----------
-14(15)--12------------------------------------------12---15-------
-14(16)--12----12-------------------12~--14p12-14(16)--------14p12-
-------------14---14p12----12-14-14--------------------------------
------------------------14-----------------------------------------

------------------------------------------0--0--0-
------------------------------------------0--0--0-
-0h2-0------------------------------------0--0--0-
-------2-0---------------0-2-0h2-0-2p0------------
-----------2-1-0-1-0-------------------2~---------
---------------------3p0--------------------------

---------0-----------------0-------0----------0------0h3p0-----0---------
---------0-----------------0--3(5)---0------0---3(4)-------3-0---3-----3-
-2(4)-2--0--2(3)-0h10----------------0--2(4)-----------------------2/4---
----------------------2--------------------------------------------------
------------------------0------------------------------------------------

-----------7---7---7-----------7-7-7----------7--------7-7\---/12-12-12-12-
---3-----7---7---7---7--10(11)-7-7-7-10(11)-7-7-10(11)-7-7\---/12-12-12-12-
-4---4/8-------------------------------------------------------------------
------------------------------------------------------------0--------------
------------------------------------------------------------0--------------

-12-12-15(17)-15-12-----------------------------------------------------
-12-12--------------15--------12-15-12--------15-------------14--14(15)-
-----------------------14(16)----------14(16)----14p12----12-14--14(16)-
-------------------------------------------------------14---------------

----14------------------------------------------------------------------
----14-12(13)----------------12----14-12(13)------------12----14-12(13)-
-12-14-12(13)----------------12----14-12(13)------------12----14-12(13)-
--------------14p12----12h14----14----------14-12-14-14----14-----------
--------------------14--------------------------------------------------
--------------------------------------------------12-12----12-----------

-------------14-14\------
-----------x-14-14\------
-----------x-14-14\-0--0-
-14-12-----x-13-13\-0--0-
-------14\----------0----
-12--------------------7-

--------------------------------5-7-7-5~--------7(9)-5-7---5-----------
-5-7---7---7---7---7---7-5-7--5----------7-5-------------7---7p5---5-7-
-----0---0---0---0---0---------------------0--0------------------7-----

-----------------------------------------------------------12----12-12-
--------------------------------------------------------12-12----12-12-
------------------------------------7~------------------12-12----12-12-
---7(8)-7-5-------------9-9-7-9---------9-9-7-9-9-7-----12----14-------
------------7-5-7------------------------------------------------------
-0----------------5/7-7-7-7-7-7--7------------------/12-12----12-------

----12--------------14--12-------------10-----10-------8--8------8--8--8-
----12--14(15)--12--14--12-------------10-----10-------8--8------8--8--8-
----12--14(16)--12--14--12--14\----------------------------------6--6--6-
-14------------------------------9--9------9-----7--7--7--7-7--7---------
-12------------------------------7--7------7-----5--5-------5--5---------

----------------------------10---10--10--10---------------8--8------
-0-------8--x--8--8---------10---10--10--10--0------------8--8------
-0-------7--x--7--7--------------------------0------------7--7------
-0-------------------7/9--9----9-------------0----------------------
---------------7--7--------------------------------7-7--------------
----0--0-------------5/7--7----7----------------0--0---0-------0--0-

----------------------------------||---------------------8--8---8-||
---8~--8---------------8--8-----8-||---------------------8--8---8-||
---7~--7---------------7--7-----7-||---------------------7--7---7-||
-----------------------6--6-----6-||---------------------6--6---6-||
-------------7--7-7----7--7-----7-||--------5-5-6-6-7-7--7--7---7-||
-0--------0----------0-------0----||-5/7--7-------------------0---||

-------8-----8-----------10----10-10-----10----10----10-10-10---
-------8-----8--0--------10----10-10-----10----10----10-10-10-0-
-------7-----7--0---------------------------------------------0-
-------6-----6-----9--9------9--------9------9----9-----------0-
-------7-----7--------------------------------------------------
-0-0-0----0--------7--7------7--------7------7----7-------------

------8-----8--8----8---8----8--8-------------------------------------
------8-----8--8----8---8----8--8-------------------------------------
------7-----7--7----7---7----7--7--x--------------------5(6)~---------
------6-----6--6----6---6----6--6--x--5/7-7-7-7-7-5-7-7-------7-5-5-7-
------7-----7--7----7---7----7--7--x----------------------------------
-0--0----0--------0---0----0----------3/5-5-5-5-5---------------------

------------------------------10----10-10-10-10--0-------8----8-8----
--------8----8--8--0----------10----10-10-10-10--0-------8----8-8----
--------7----7--7--0-----------------------------0-------7----7-7----
-------------------0--7/9--9-----9-----------------------6----6-6----
---------------------------------------------------7-----7----7-7----
-0--0-0---0-----------5/7--7-----7--------------------0-----0------0-

--------------------0--------------12-------------12------------------
-/8-8-8-8-8~--8/13--0-----------12----15(16)(17)~----15---------------
----------7~--7/12--0----14(16)-------------------------14(16)~14-12~-

-12h14-12----12------------12(13)---------------------------------------
----------14------12-14-14--------14-12-14-12-12-------13---------------
----------------0--------------------------------13/14----14-14---14-14-

----------14-------14-----12-12-12-12-12p0--0-0--12p0--12p0-0-12p0-0-12p0-
--------------------------12-12-12-12-12p0--0-0--12p0---------------------
-14-----------------------------------------------------------------------
----14-14----14-14----14--------------------------------------------------

-0-12p0-0-12p0-0-12p0-0-12p0-0-12p0-0-12p0-0-12p0-0-15(16)(17)(17)(16)15-

---15(17)-15-12h14p12-------12----------12-12---------------------------
--x-------------------15(16)---12-------12----15------------------------
-x--------------------------------14(16)---------14p12----12-14(15)(16)-
-------------------------------------------------------14---------------

-12-12-12-----12-12--------12--------12---------12---------12------------12-
-12-12-12-----12-12------12--------12---12----12---------12--15p12-------12-
-------14(16)------14(16)----14(16)-----14(16)-----14(16)----------14(16)---

                                   bar dive
--------------------------------15(12)(12)(12)(12)(12)-----------------
-12-12~----12--12--14(15)(16)~------------------------14(15)(16)(15)14-
-----------12--0-------------------------------------------------------
--------14-------------------------------------------------------------

-----------12--12----15(17)-15(17)-15-12h14p12----12-----17(20)(19)17-15(17)-
-----------12-----12---------------------------15-12-------------------------
-12-14(16)-------------------------------------15----0-----------------------
-------------------------------------------------------0---------------------

-(17)15-12-------------------------------------------------------------
-----------15p12-------------------------------------------------------
-----------------14(15)~----12-14/15(17)15p14-12-----12-12~------------
-------------------------14----------------------14---------14-12------
-------------------------------------------------12--------------------

-------------------------12~---------------------------------------------
----------------12-14--------14-12----------------------12-14~-14-12-----
-12h13p12--------------------------14-13-12h13p12--------------------14~-
----------15-12-------12--------------------------15-12------------------

---------------0--15p0-0-0h15p0-0-0h15p0-0-0-0-0-15p0-0-0-15p0-0-15-0-15-
---------------0---------------------------0---0--------------------0-15-
---14-14-14-14-----------------------------------------------------------
---13-13-13--------------------------------------------------------------
-14------14--------------------------------------------------------------

-15p0-15-15p0-15-15p0-15-15p0-15-15p0-15-15p0-15-15p0-15-15p0-15-15p0-0-0-
-15---15------------------------------------------------------------------

-15(16)(17)-15(17)-15-12h14p12----12----------------------------------------
-15----------------------------15----15-15-----15---------------------------
----------------------------------------14(16)----14-12-14(15)(16)14-12(13)-

------------------0----------------------------------------------------
------------------0----------------------------------------------------
-14(16)p12-14-----0--12-14-14(16)14-12h14-12p11-12-11\9-11p9\7-9p7\6-7-
--------------14~------------------------------------------------------

-------------------------------------------3--------------------------------
-6h7hp6\4-6-4h6p4\2-4-2-2p0-2p0---0h2(3)(4)--2(3)-1-------------------------
--------------------------------2-------------------2p0---------------0h2-2-
--------------------------------------------------------2-1-0h1p0-----------


-----------------------------0--------8--8---8--0------------------8-8---8-0-
----------------8---8~--8-8--0--------7--7---7--0------------------7-7---7-0-
------2---0-2/7-7---7~--7-7--0--------6--6---6--0------------------6-6---6-0-
-----------------------------0--7-7---7--7---7-------5-5-6-6-7-7---7-7---7---
-0--0---0---------7---------------0-0------0------/7-----------0-0-----0-----


--------------------------------------------------10----------10---10-10-
--------------------8--8---8-0--------------------10----------10---10-10-
--------------------7--7---7-0-------------------------------------------
--------------------6--6---6---------------9--9--9----9--9--9----9-------
------5-5-6-6-7-7---7--7---7-------5-6-7---------------------------------
-/7-7-------------0------0-----/7-7------7-7--7--7----7--7--7----7-------

---10-10--0---------------------------------------8---8--8---8----8--8-8-8-
---10-10--0-------8---8--8---8----8--8--8---------8---8--8---8----8--8-8-8-
----------0-------7---7--7---7----7--7--7----------------------------------
-9----------------6---6--6---6----6--6--6--5/7--7---7------7----7----------
------------------7---7--7---7----7--7--7----------------------------------
-7-----------0--0---0------0----0----------3/5--5---5------5----5----------

-0------8---8-8-----------------------------------8--x--8--8--8-------------
-0------7---7-7-----------------------------------7--x--7--7--7-----8-8~~~~-
-0------6---6-6----7/9--9--9--9--9--7/9--9--9-----6--x--6--6--6\0---7-7~~~~-
--------7---7-7-------------------------------7---7--x--7--7--7\0-----------
---0--0---0------0-5/7--7--7--7--7--5/7--7--7---0-----------------7---------

---------12-12---------------------------------------------------------
-8~--/12-12-12-15-12---------------------------------------------------
-7~--/12-------------14(15)14p12----12~~-------------------------------
-6~------------------------------14------14p12-------------------------
-7~--------------------------------------------14-13-12-12/14\12\11~~~-

-------------------------
-------------------------
-------------------------
-------------------------
-------------------------
-0-(-2)-(-2)-(-2)-(-2)-0-





Comments


Popular Vaughan Stevie Ray tabs & chords
Look At Little Sister Bass Tabs
Scuttle Buttin Bass Tabs
Crossfire Chords
Hug You Squeeze You Tabs
Lenny 1 Tabs
Rude Mood Tabs
Texas Flood Intro Tabs
Tightrope Tabs
Voodoo Chile (Slight Return) Tabs
Voodoo Chile 1 Tabs


Song lyrics



↑ Back to top | Tablatures and chords are parodies/interpretations of the original songs. You may use it for private study, scholarship, research or language learning purposes only
© 2014 AZChords.com Contact us | Privacy policy | DMCA | Add/correct tabs | Request tabs | Top 50 tabs