» » »

Vaughan Stevie Ray, Honey Bee Tabs (ver.1)

Artists:  A B C D E F G H I J K L M N O P Q R S T U V W X Y Z # 

Honey Bee Tabs (ver.1)

Vaughan Stevie Ray Tabs
 Rating:
4/5 (4 votes)
Honey Bee lessons Tabs too difficult? Try these video lessons and learn fast
                
First of all, tune down half a step.  

Intro:                           
e----------7----------------9----7h8p7----------7---------------------------
B-------7------10-----7--------------------10^--------10----7---------------
G--/ 8----------------------------------------------------------------------
D---------------------------------------------------------------------------
A---------------------------------------------------------------------------
E---------------------------------------------------------------------------

							E7
e----------5----7--6--5----------5------------------------------0----x---0--
b-------5-------------------8^---------8----5/----------0-------0----x---0--
g--/ 6--------------------------------------------------0-------1----x---1--
D-------------------------------------------------------0-------2----x---2--
A---------------------------------------------------------------------------
E---------------------------------------------------------------------------


e--------0--0--0--0--0--------------------0--0---------------------0---0---
B-/3----3--3--3--3--3---------------------0--0---------------------0---0---
G-/4----4--4--4--4--4—--4/2/0-------------1--1---------------------0---0---
D-----------------------------------------2--------------------------------
A-----------------------------------------------------0h1-2-2--------------
E--------------------------------------------------------------------------


Here's a start to the rest of the song.  Key of E (E, A, B)


Verse:

Like a    queen bee's honey,  you as       sweet as can be.
e------------------------------------0--------------------------------------
B------------------------------------0------------------------------0-------
G------------------------------------0------------------------------0-------
D-------------------------------------------------------------------0-------
A---------------------------------------------------------------------------
E-----------------------------------------0-------------------------------0-

I am the king     baby,      buzz with me
e---------------------------------------------------------------------------
B---------------0-------------------------------0---------------------------
G---------------0-------------------------------0---------------------------
D---------------0-------------------------------0---------------------------
A---------------------------------------------------------------------------
E--------------------0--------------------------------0---------------------

Dive into your hive                and into your life,         tell me little
e-------------------------------------------------------0-------------------
B-------------------------0-----------------------------0-------------------
G-------------------------0-----------------------------0-------------------
D-------------------------0-------------------------------------------------
A-------------------------------------------------------------2-------------
E-------------------------------0-------------------------------------------
Baby that you'll buzz me all the time.    

           Cause the way we kiss.......................................
e--------------------------------------------------------------------------
B--------------------------------------------------------------------------
G--------------------------------------------------------------------------
D---------2---2---4---4---4------------------------------------------------
A---------0---0---0---0---0------------------------------------------------
E-3--4---------------------------------------------------------------------
            
Submit corrections

comments powered by Disqus
↑ Back to top | Vaughan Stevie Ray Tabs for Honey Bee. Lyrics for acoustic guitar and electric guitar. Tablatures and chords are parodies/interpretations of the original songs. You may use it for private study, scholarship, research or language learning purposes only