>
 >
Cold Shot

Cold Shot Guitar Tabs

Vaughan Stevie Ray - Cold Shot chords, tabs, tablatures, lyrics

Guitar lessons | Add/correct | Request | Top 50 tabs Artists:  A B C D E F G H I J K L M N O P Q R S T U V W X Y Z 0-9

Cold Shot Guitar Tabs – Vaughan Stevie Ray

CD, Sheet music, Poster

Do you like Cold Shot? Share with your friends now
Bass TabsTabsTabs v2
Mime-Version: 1.0
Content-Transfer-Encoding: 7BIT

                              Cold Shot 
                             by SRV
E|--------------7--5-|-------------7--5--|----------7--5-|--------7--5------|
B|--------------7--5-|-------------7--5--|----------7--5-|--------7--5------|
G|--------------7--5-|-------------7--5--|----------7--5-|--------7--5------|
D|-------5--7--------|--7--5---7---------|--7--5--7------|--5--7------------|
A|-------------------|-------------------|---------------|------------------|
E|--5----------------|-------------------|---------------|------------------|
                                    
                                    Fig 1--->
E|----------7--5-|----------5--7---|--------7--5--|--------7--5-------------|
B|----------7--5-|----------5--7---|--------7--5--|--------7--5-------------|
G|----------7--5-|----------5--7---|--------7--5--|--------7--5-------------|
D|-7--5--7-------|----5--7---------|--5--7--------|--5--7-------------------|
A|---------------|-----------------|--------------|-------------------------|
E|---------------|-----------------|--------------|-------------------------|
                                                                             
E|--------7--5--|---------5--7-7--5-5--|---------5-7-7--5-5-----------------|
B|--------7--5--|---------5--7-7--5-5--|---------5-7-7--5-5-----------------|
G|--------7--5--|---------5--7-7--5-5--|---------5-7-7--5-5-----------------|
D|--5--7--6-----|---5--7---------------|---5--7-----------------------------|
A|--------------|----------------------|------------------------------------|
E|--------------|----------------------|------------------------------------|
  Once was ...    baby             we   held our love in our hands

                                                                            
E|-------7-5-|---------7--5---|--------7--5--|------------------------------|
B|-------7-5-|---------7--5---|--------7--5--|------------------------------|
G|-------7-5-|---------7--5---|--------7--5--|------------------------------|
D|-5--7------|---5--7---------|--5--7--------|------------------------------|
A|-----------|----------------|--------------|--------------------------12sl|
E|-----------|----------------|--------------|------------------------------|
              and now I reach to kiss your lips my touch don't mean a thing.

E|---------|---------------12--10-|---------------12sd-|----------7--5------|
B|---------|---------------12--10-|---------------12sd-|----------7--5------|
G|---------|---------------12--10-|---------------12sd-|----------7--5------|
D|---------|---12--10--12--11-----|---12--10--12-------|--7--5--7-----------|
A|--12sl---|----------------------|--------------------|--------------------|
E|---------|----------------------|--------------------|--------------------|
  and thats..  baby                yeah thats a drag
                                                                             
E|-----------7--5-|--------------12--10-|-------------12--10----------------|
B|-----------7--5-|--------------12--10-|-------------12--10----------------|
G|-----------7--5-|--------------12--10-|-------------12--10----------------|
D|--7--5--7-------|--12--10--12---------|--12--10--12-----------------------|
A|----------------|---------------------|-----------------------------------|
E|----------------|---------------------|-----------------------------------|
        a cold shot baby                                            end fig1    
E|----------------------------|-----------7--5--|------------7--5-------------12-----12--12----12---12--12|-17~~~-|
G|-----7-5-|-----7-6--is ---|-six-------12-----12--12----12---12--12|-17~~~-|
D|-5-7-----|-5-7-----played-|times------12-----12--12----12---12--12|-17~~~-|
A|---------|----------five--|---------------------------------------|-16~~~-|
E|---------|---------times!-|--------12-----12--------12----12------|-------|
                                                                             
  Well there is the intro and verse to cold shot.
Hope you SRV fans and others enjoy it!! I have included the rest of the lyrics
at the bottom for all those interested.

Verse 2 
Remember the way that you loved me
Do anything I say
And now I see You out somewhere you won't give me the time of day
And thats a cold shot etc...

Verse 3
I really meant I was sorry 
for ever causing you pain
You showed your appreciation





Comments


Popular Vaughan Stevie Ray tabs & chords
Voodoo Chile Bass Tabs
Crossfire Chords
Life Without You Chords
The House Is Rocking Chords
I'm Cryin' Tabs
Pride And Joy Tabs
Testify Tabs
Texas Flood 1 Tabs
Traffic Jam Tabs
Voodoo Chile Tabs


Song lyrics



↑ Back to top | Tablatures and chords are parodies/interpretations of the original songs. You may use it for private study, scholarship, research or language learning purposes only
© 2014 AZChords.com Contact us | Privacy policy | DMCA | Add/correct tabs | Request tabs | Top 50 tabs