» » »

Vatreni Poljubac, Seksualno Nemoralan Tip Tabs (ver.1)

Artists:  A B C D E F G H I J K L M N O P Q R S T U V W X Y Z # 

Seksualno Nemoralan Tip Tabs (ver.1)

Vatreni Poljubac Tabs
 Rating:
4/5 (4 votes)
Seksualno Nemoralan Tip lessons Tabs too difficult? Try these video lessons and learn fast
1
                Uvod:
Pratnja za solo:
E A E, E Fis G Fis E.....

e-------------------------------------------------|
h----*1212121212-14-12121212---1414141414-121212--|
G--14------------------------14-------------------|
D-------------------------------------------------|
A-------------------------------------------------|
E-------------------------------------------------|

e-------------------------------------------------|
h----*1212121212-14-12----------------------------|
G--14-----------------14-13-11--11--11-14-13-11---|
D----------------------------------------------14-|
A-------------------------------------------------|
E-------------------------------------------------|

ova kao *-znaci drljanje trzalicom gore dole brzo...kao za kolo...


strofa:
E
dobro znas da volim te
i koliko trebam te
A                          E
mog zivota znas da ljubav si
E
znas da uvjek kad sam sam
nista drugo netrebam
A          Fis(m)      E
usne su mi tvoje dovoljne


kazes ne daju mi curice
zena pune ulice
i njihove kratke suknjice
samo kad me pozdrave i u obraz poljube
od razuma mene rastave

ref:
D               E
izvini bilo je nesvjesno
D                   A     C
al ti mi samo kazes tooooooooo
Fis      E
je nedopustivo....

uvod:

kad sputa dodjem umoran
do zore te pozdravljam
cijeli bi dan  te ljubio
to je valjda pravi znak
da mi je pao mrak
i da drugu nism dirnuo

al ti kazes
kao ni tvoje drugarice
komsinice rodice
rekle su ti to sam trebo
ne da sam ih dirao pipkao i stipao
vec svaku sam ljubio u vrat

ref:

kroz sve ove godine
i kroz razne lomove
nasa ljubav ipak opstaje
jer ti si se vracala
prastala i plakala
konacno si ipak svatila

da nisu samo curice
i njihove suknjice
i nikakav staracki trip
bile su tu i mamice
sredovjecne i starice
seksualno sam nemoralan tip

ref:

A        (G) Fis  E
seksualno nemoralan ti
            
Submit corrections

comments powered by Disqus
↑ Back to top | Vatreni Poljubac Tabs for Seksualno Nemoralan Tip. Lyrics for acoustic guitar and electric guitar. 1 Tablatures and chords are parodies/interpretations of the original songs. You may use it for private study, scholarship, research or language learning purposes only