» » »

Iz Inata Tabs (ver.1)

Artists:  A B C D E F G H I J K L M N O P Q R S T U V W X Y Z # 

Iz Inata Tabs (ver.1)

Vatreni Poljubac
Rating:
0/5 (0 votes)

Hard to play? Try these video lessons and learn fast.
                *^(*)-band(uvijanje zice)
                                                        ~~~~
E-------------------------------------------------------------------|
H-------------------------------------------11^(13)-10----10--------|
G----12^(14)---14^(16)--15^(17)----12^(14)-------------12-----------| 2X
D-------------------------------------------------------------------|
A-------------------------------------------------------------------|
E-------------------------------------------------------------------|

 Am  G   F   2x

 Am       G            F
I kad mi svugdje budu zatvorena vrata
I kada pomoc necu dobit' ni od brata
Kad mi sitne duse stave omcu oko vrata
A ja cu iz sveg glasa pjevat iz inata


   O-O   O-O-OO  O-OO    O   O   O
E------------------------------------------|
H------------------------------------------|
G------------------------------------------|
D--5--5-------------------------4----------|
A--3--3---5--5----7--7---5---7--2----------|
E---------3--3----5--5---3---5-------------|

Ponovo uvodni dio

I kad mi zivot dodje do sudnjeg sata
Ni suzu necu pustit isto mi se hvata
Ciganku ostavicu drugim neka gata
A ja cu iz sveg glasa pjevat' iz inata

Ref. ,pa ponovo uvodni dio

I kada svi mi budu okrenuli ledja
I kad se samo ruzno iza ruznog redja
Sa sudbinom ko sa vinom tesko se barata
Zato cu iz sveg glasa pjevat iz inata
            
Hard to play? Try these video lessons and learn fast. | Correct




comments powered by Disqus
↑ Back to top | Tablatures and chords are parodies/interpretations of the original songs. You may use it for private study, scholarship, research or language learning purposes only