» » »

Touched Tabs (ver.1)

Artists:  A B C D E F G H I J K L M N O P Q R S T U V W X Y Z # 

Touched Tabs (ver.1)

Vast
Rating:
3/5 (4 votes)

Hard to play? Try these video lessons and learn fast.
                VAST

Intro

e|-------------------------------------------|
B|-------------------------------------------|
G|-------------------------------------------|
D|-------------------------------------------|
A|--44444-44444-4444-666666------------------|
E|--22222-55555-4444-777777------------------|x12


e|--------------------------|   |--------------------------------------|
B|--------------------------|   |--------------------------------------|
G|--------------------------|   |--9999999-6666-44444444-666-4-2---9-6-|
D|-44444-7777-6666-999999---|   |--9999999-6666-44444444-666-4-2-4-9-6-|
A|-44444-7777-6666-999999---|   |--7777777-4444-22222222-444-2-2-4-7-4-|
E|-22222-5555-4444-777777---|x4 |--------------------------------2-----|

Main Riff
e|--------------------------|
B|--------------------------|
G|--------------------------|
D|-4447-7666-99-------------|
A|-4447-7666-99-------------|
G|-2225-5444-77-------------|

Break

"Oh I, I look into your eyes and saw"...
e|--------------------------------------------|
B|--------------------------------------------|
G|-444444444--00000000------------------------|
D|-444444444--22222222---222222---------------|
A|-222222222--22222222---444444---------------|
E|-----------------------444444---------------|


That's It, Listen to the song to get the timing
            
Hard to play? Try these video lessons and learn fast. | Correct




comments powered by Disqus
↑ Back to top | Tablatures and chords are parodies/interpretations of the original songs. You may use it for private study, scholarship, research or language learning purposes only