» » »

Thrown Away Tabs (ver.2)

Artists:  A B C D E F G H I J K L M N O P Q R S T U V W X Y Z # 

Thrown Away Tabs (ver.2)

Vast
Rating:
0/5 (0 votes)

Tabs too difficult? Try these video lessons and learn fast.
                Intro/Verse (clean):

e|--------------------------------------------------------------------------|l
B|--------------------------------------------------------------------------|l
G|--------------------------------------------------------------------------|l
D|-4---x6----2-2-----4---6---7--- 9----x6-----4---x3------xxxx--------------|l
A|-4---------2-2-----4---6---7----9-----------4-----------xxxx--------------|l
E|-2---------0-0-----2---4---5----7-----------2-----------xxxx--------------|l

at (:29), you do the same as above with distortion


Intro Riff (:39):

e|--------2---------5-----2-----------------2--------4------2----------------------|
B|----2------------------------------0---------------------------------------------|
G|---------------------------------------------------------------------------------|
D|---------------------------------------------------------------------------------|
A|---------------------------------------------------------------------------------|
E|---------------------------------------------------------------------------------|

e|-----------2-------7-------2--------------2------4h5p2---------------------------|
B|----3-------------------------------2--------------------------------------------|
G|---------------------------------------------------------------------------------|
D|---------------------------------------------------------------------------------|
A|---------------------------------------------------------------------------------|
E|---------------------------------------------------------------------------------|


e|--------2---------5-----2-----------------2--------4------2----------------------|
B|----2------------------------------0---------------------------------------------|
G|---------------------------------------------------------------------------------|
D|---------------------------------------------------------------------------------|
A|---------------------------------------------------------------------------------|
E|---------------------------------------------------------------------------------|


e|-----------2-------7-----------------9-----------7-------------------------------|
B|----3----------------------7-------------7--------7------------------------------|
G|----------------------------------------------------------7----------------------|
D|---------------------------------------------------------------------------------|
A|---------------------------------------------------------------------------------|
E|---------------------------------------------------------------------------------|

Note: Anytime you hear this riff, the intro/verse riff is always underneath it4

Chorus:
("Let me in, because i'm out...")

e|---------------------------------------------------------------------------------|
B|---------------------------------------------------------------------------------|
G|------4-------x8---------2-----x8--------6----x8---------4-----x8----------------|
D|------4------------------2---------------6---------------4-----------------------|
A|------2------------------0---------------4---------------2-----------------------|
E|---------------------------------------------------------------------------------|


Order
Intro/verse
Intro Riff
Intro/Verse
Chorus x2
Intro Riff
Chorus x2
Intro Riff
(pause for piano and bass)
Chorus x2
Intro Riff x4
            
Tabs too difficult? Try these video lessons and learn fast.




comments powered by Disqus
↑ Back to top | Tablatures and chords are parodies/interpretations of the original songs. You may use it for private study, scholarship, research or language learning purposes only