» » »

Vast, Punish Me Tabs (ver.1)

Artists:  A B C D E F G H I J K L M N O P Q R S T U V W X Y Z # 

Punish Me Tabs (ver.1)

Vast Tabs
 Rating:
4/5 (4 votes)
Punish Me lessons Tabs too difficult? Try these video lessons and learn fast
1
                VAST
Punish me

Intro

Riff 1
   Bm      Bm       A         Em         Em
e-2-2-2---2-2--0-0-0-0-0-0--0-0-0---0-0-0-0-0-0-0---|
B-3-3-3---3-3--2-2-2-2-2-2--0-0-0---0-0-0-0-0-0-0---|
G-4-4-4---4-4--2-2-2-2-2-2--0-0-0---0-0-0-0-0-0-0---|
D-4-4-4---4-4--2-2-2-2-2-2--2-2-2---2-2-2-2-2-2-2---|
A-2-2-2---2-2--0-0-0-0-0-0--2-2-2---2-2-2-2-2-2-2---|
E-2-2-2---2-2--0-0-0-0-0-0--0-0-0---0-0-0-0-0-0-0---|


e-2-2-2---2-2--0-0-0-0-0-0--0-0-0---0-0-0-0-0-0-0---|
B-3-3-3---3-3--2-2-2-2-2-2--0-0-0---2-2-3-3-3-3-3---|
G-4-4-4---4-4--2-2-2-2-2-2--0-0-0---0-0-0-0-0-0-0---|
D-4-4-4---4-4--2-2-2-2-2-2--2-2-2---2-2-2-2-2-2-2---|
A-2-2-2---2-2--0-0-0-0-0-0--2-2-2---2-2-2-2-2-2-2---|
E-2-2-2---2-2--0-0-0-0-0-0--0-0-0---0-0-0-0-0-0-0---|

Riff 2
    G                      Bm                     E                  Bm
e-3-3-3-3-3-3-3-3-3-3---2-2-2-2-2-2-2-2-2-2---0-0-0-0-0-0-0-0-0-0---2-2-2-2-2-2-2-2-2-|
B-3-3-3-3-3-3-3-3-3-3---3-3-3-3-3-3-3-3-3-3---0-0-0-0-0-0-0-0-0-0---3-3-3-2-2-2-2-2-2-|      
G-0-0-0-0-0-0-0-0-0-0---4-4-4-4-4-4-4-4-4-4---1-1-1-1-1-1-1-1-1-1---4-4-4-4-4-4-4-4-4-| 
D-0-0-0-0-0-0-0-0-0-0---4-4-4-4-4-4-4-4-4-4---2-2-2-2-2-2-2-2-2-2---4-4-4-4-4-4-4-4-4-|     
A-2-2-2-2-2-2-2-2-2-2---2-2-2-2-2-2-2-2-2-2---2-2-2-2-2-2-2-2-2-2---2-2-2-2-2-2-2-2-2-|           
E-3-3-3-3-3-3-3-3-3-3---2-2-2-2-2-2-2-2-2-2---0-0-0-0-0-0-0-0-0-0---2-2-2-2-2-2-2-2-2-| 


Riff 1
You've been waiting ever since time started...
You've been waiting, now's the time
I have a love you have been reaching for
I have a life you have been hoping for

Riff 2
Punish me with the promises I've made,Punish me with the grave
Promise me that you'll never let me sleep and feel happy again

Riff 1
You've been waiting now's the time
If you've been waiting now's the time
I have a love you have been reaching for
I have a life that you've been hoping for

Riff 2
Punish me with the promises I've made,Punish me with the grave
Promise me that you'll never let me sleep and feel happy again


SOLO
e|--------------------7-9-10-9/10-7-5-7-5-5/7-7-5-5/2-2-1-2-1-2-1---------------|
B|----------------------------------------------------------------0-0-----------|
G|------------2-4-2-------------------------------------------------------------|
D|------0-2-4-------------------------------------------------------------------|
A|--0p2-------------------------------------------------------------------------|
E|------------------------------------------------------------------------------|

e|------------------------------------------------------------------------------|
B|------------------------------------------------------------------------------|
G|--0p2-4-7-9-7-4--0p2-4-7-9-7-9-7-4---2p4-4-2----------------------------------|
D|---------------------------------------------4-0-2-0---0----------------------|
A|-----------------------------------------------------2---222p0----------------|
E|------------------------------------------------------------------------------|

e|--10-10-7-5-7-5p7-7-5-2-0-2-2-2-0-----7-5-7-5p7-7-5-2-0-2-2-0-2-3-2-3-10------|
B|------------------------------------------------------------------------------|
G|------------------------------------------------------------------------------|
D|------------------------------------------------------------------------------|
A|------------------------------------------------------------------------------|
E|------------------------------------------------------------------------------|

e|-----------------------------------------------------|
B|--------------------------0000p2-2222p33333----------|
G|--------------------------0000---0000-00000----------|
D|-------2-4-7-9-9-9-7-9-------------------------------|
A|--0p2------------------------------------------------|
E|-----------------------------------------------------|

*(Play this 5 times with the solo on a second guitar)
e-2-2-2---2-2--0-0-0-0-0-0--0-0-0---0-0-0-0-0-0-0---|
B-3-3-3---3-3--2-2-2-2-2-2--0-0-0---0-0-0-0-0-0-0---|
G-4-4-4---4-4--2-2-2-2-2-2--0-0-0---0-0-0-0-0-0-0---|
D-4-4-4---4-4--2-2-2-2-2-2--2-2-2---2-2-2-2-2-2-2---|
A-2-2-2---2-2--0-0-0-0-0-0--2-2-2---2-2-2-2-2-2-2---|
E-2-2-2---2-2--0-0-0-0-0-0--0-0-0---0-0-0-0-0-0-0---|
                                                       
e-2-2-2---2-2--0-0-0-0-0-0--0-0-0---0-0-0-0-0-0-0---|
B-3-3-3---3-3--2-2-2-2-2-2--0-0-0---2-2-3-3-3-3-3---|
G-4-4-4---4-4--2-2-2-2-2-2--0-0-0---0-0-0-0-0-0-0---|
D-4-4-4---4-4--2-2-2-2-2-2--2-2-2---2-2-2-2-2-2-2---|
A-2-2-2---2-2--0-0-0-0-0-0--2-2-2---2-2-2-2-2-2-2---|
E-2-2-2---2-2--0-0-0-0-0-0--0-0-0---0-0-0-0-0-0-0---|

Riff 1
Punish me with the promises I've made,Punish me with the grave
Promise me that you'll never let me sleep and feel happy again

End
e|-----------------------|
B|-0-0-0-2-2-3-3-3-3-3-3-|   |-----0----|
G|-0-0-0-0-0-0-0-0-0-0-0-|
D|-----------------------|
A|-----------------------|
E|-----------------------|x4
            
Submit corrections

comments powered by Disqus
↑ Back to top | Vast Tabs for Punish Me. Lyrics for acoustic guitar and electric guitar. 1 Tablatures and chords are parodies/interpretations of the original songs. You may use it for private study, scholarship, research or language learning purposes only