» » »

Vast, Pretty When You Cry Tabs (ver.1)

Artists:  A B C D E F G H I J K L M N O P Q R S T U V W X Y Z # 

Pretty When You Cry Tabs (ver.1)

Vast Tabs
Rating:
5/5 (2 votes)
Hard to play? Try these video lessons and learn fast.
                By VAST

Standard Tuning

Intro and Verse (1,2,3):

Synth Arr. for Bass:

Part A
G|----------------------------|-----------------------------|
D|----------------------------|-----------------------------|
A|----------------------------|-----------------------------|
E|--0---0-0--0-0--0--0-0--3h5-|--0---0-0--0-0--0--0-0--3h5--|

Part B
G|----------------------------|-----------------------------|
D|----------------------------|-----------------------------|
A|--0---0-0--0-2--2--2-2--0-2-|--3--3--2--2-2---------------| Part A
and B x4
E|----------------------------|----------------4--4--4--4-4-|


Acoustic Guitar-
play this over Verse and 1st half of chorus:

e|---------------------------------
B|---------------------------------
G|---------------------------------
D|-2-2-2-2-2-2-2-2-2-2-2-2-2-2-2-2- x20
A|---------------------------------
E|---------------------------------


Chorus:
G|---------------------------|-------------------------|
D|---------------------------|-------------------------|
A|---------------------------|-------------------------| x4
E|--3--3--3--3-0--0--0--0--0-|--3--3--3--3---0-0---0-0-|



Chorus: play this during the second half of the chorus:

e|---------------------------|-------------------------|
B|--3--3--3--3-5--5--5--5--5-|--3--3--3--3---5-5---5-5-|
G|---------------------------|-------------------------|
D|---------------------------|-------------------------| x2
A|---------------------------|-------------------------|
E|---------------------------|-------------------------|

verse 2, then
chorus 2, then
verse riff with "ahh" over it

Choir "ahh":

D|--0-2--|

2nd half of third chorus:
(Dist. guitar)

e|------------------------------|----------------------------|
B|------------------------------|----------------------------|
G|------------------------------|----------------------------|
D|--5--5-5-5--5-2--2-2-2--2-2-2-|--5--5-5-5--5---2-2-X-X-2-2-|
A|--5--5-5-5--5-2--2-2-2--2-2-2-|--5--5-5-5--5---2-2-X-X-2-2-|
E|--3--3-3-3--3-0--0-0-0--0-0-0-|--3--3-3-3--3---0-0-X-X-0-0-|
(you hurt me baby.....)

Verse 3, then

Last 1/2 of chorus 4 & outro:
(Dist. Guitar)

e|-------------------|
B|-------------------|
G|-------------------|
D|-X-X-X-X--X-X-X-X--|
A|-X-X-X-X--X-X-X-X--|
E|-X-X-X-X--X-X-X-X--|


e|------------------------------|---------------------------------|
B|------------------------------|---------------------------------|
G|------------------------------|---------------------------------|
D|5--5-5-5-5-5-2--2-2-2-2-2-2-2-|--5--5-5-5-5-5---2-2-X-X-2-2-X-X-|
A|5--5-5-5-5-5-2--2-2-2-2-2-2-2-|--5--5-5-5-5-5---2-2-X-X-2-2-X-X-|
E|3--3-3-3-3-3-0--0-0-0-0-0-0-0-|--3--3-3-3-3-3---0-0-X-X-0-0-X-X-|
(i didn't wanna hurt you baby!!....)
            

comments powered by Disqus
↑ Back to top | Vast Tabs for Pretty When You Cry. Lyrics for acoustic guitar and electric guitar. Tablatures and chords are parodies/interpretations of the original songs. You may use it for private study, scholarship, research or language learning purposes only