» » »

Vast, My Tv And You Bass tabs (ver.1)

Artists:  A B C D E F G H I J K L M N O P Q R S T U V W X Y Z # 

My Tv And You Bass tabs (ver.1)

Vast Tabs
 Rating:
4/5 (4 votes)
My Tv And You lessons Tabs too difficult? Try these video lessons and learn fast
                Member of the Bass Tab Archive Tabbing Army ~


Good song. Simple but very cool sounding bassline throughout:

Beginning:

G|--------------------------------------------------------------------|
D|--------------------------------------------------------------------|
A|--------------------------------------------------------------------|
E|--------------------------------------------------------------------|
B|--1-1-1-1-1--1--4-4-4--3-3-3--1-1-1-1-1--1--4-4-4--3-3-3------------|


G|--------------------------------------------------------------------|
D|--------------------------------------------------------------------|
A|--------------------------------------------------------------------|
E|--------------------------------------------------------------------|
B|--1-1-1-1-1--1--4-4-4--3-3-3--1-1-1-1-1--1--1-1-1-1-1--1------------|

Verse:

G|--------------------------------------------------------------------|
D|--------------------------------------------------------------------|
A|--------------------------------------------------------------------|
E|--------------------------------------------------------------------|
B|--1-1-1-1-1--1--6-6-6-6-6--6--4-4-4-4-4--4--1-1-1-1-1--1------------|


G|--------------------------------------------------------------------|
D|--------------------------------------------------------------------|
A|--------------------------------------------------------------------|
E|--------------------------------------------------------------------|
B|--1-1-1-1-1--1--6-6-6-6-6--6--8-8-8-8-8--8--1-1-1-1-1--1------------|  x2

Pre Chorus:

G|--------------------------------------------------------------------|
D|--------------------------------------------------------------------|
A|--------------------------------------------------------------------|
E|--------------------------------------------------------------------|
B|--4-4-4-4-4--3--3-3-3-3-3-3-3--6-6-6-6-6-6-6--1-1-1-1-1-1-1---------|


G|--------------------------------------------------------------------|
D|--------------------------------------------------------------------|
A|--------------------------------------------------------------------|
E|--------------------------------------------------------------------|
B|--4-4-4-4-4-4-4--3-3-3-3-3-3-3--8-8-8-8-8--8-8-8-8-8--8-8-8---------|

Then go the Chorus/Pre Chorus again using the same progressions as the Verse
and Pre-Chorus above. Then there is a sort of "post-chorus" that is the same notes 
as the intro but a slight variation:

G|--------------------------------------------------------------------|
D|--------------------------------------------------------------------|
A|--------------------------------------------------------------------|
E|--------------------------------------------------------------------|
B|--1-1-1-1-1--1--4-4-4-3-3-3-3---------------------------------------|

then the strings come in by themselves over the same verse/pre-chorus 
progressions above... then there's a "bridge" that goes like this:

G|--------------------------------------------------------------------|
D|--------------------------------------------------------------------|
A|--------------------------------------------------------------------|
E|-----------------6--6-6--6------------------------------------------|
B|--4-4-4-4-4--4-4-----------6-6--6-6--6--1-1--1--1-1-1-1-------------| x3

G|--------------------------------------------------------------------|
D|--------------------------------------------------------------------|
A|--------------------------------------------------------------------|
E|-----------------6--6-6--6------------------------------------------|
B|--4-4-4-4-4--4-4-----------8-8--8-8--8--8-8--8-8-8------------------|

And then to the Post Chorus riff all the way to the end of the song.
Enjoy!
            
Submit corrections

comments powered by Disqus
↑ Back to top | Vast Bass for My Tv And You. Lyrics for acoustic guitar and electric guitar. Tablatures and chords are parodies/interpretations of the original songs. You may use it for private study, scholarship, research or language learning purposes only