» » »

Vast, I Woke Up La Tabs (ver.1)

Artists:  A B C D E F G H I J K L M N O P Q R S T U V W X Y Z # 

I Woke Up La Tabs (ver.1)

Vast Tabs
 Rating:
4/5 (6 votes)
I Woke Up La lessons Tabs too difficult? Try these video lessons and learn fast
1
                Intro

(Lead Guitar)
e|---------------------------------|--------------------------------|
B|-4--1-4-1-3--1-3-1-4--1-4-1/8-6--|-4--1-4-1-3--1-3-1-1--1-1-------|
G|-----------------------------5-5-|--------------------------3-3-0-|
D|---------------------------------|--------------------------------|
A|---------------------------------|--------------------------------|
E|---------------------------------|--------------------------------|

e|---------------------------------|--------------------------------|
B|-4--1-4-1-3--1-3-1-4--1-4-1/8-6--|-4--1-4-1-3--1-3-1-1--1-1-------|
G|-----------------------------5-5-|--------------------------3-3-0-|
D|---------------------------------|--------------------------------|
A|---------------------------------|--------------------------------|
E|---------------------------------|--------------------------------|

[Second Guitar Comes In]

(Lead)
e|---------------------------------|--------------------------------|
B|-4--1-4-1-3--1-3-1-4--1-4-1/8-6--|-4--1-4-1-3--1-3-1-1--1-1-------|
G|-----------------------------5-5-|--------------------------3-3-0-|
D|---------------------------------|--------------------------------|
A|---------------------------------|--------------------------------|
E|---------------------------------|--------------------------------|

(Rhythm Guitar)
e|------------------------------------|------------------------------------|
B|------------------------------------|------------------------------------|
G|------------------------------------|------------------------------------|
D|10-1010-10\5-xxxx-6-66-6/13-13\12-12|10-1010-10\5-xxxx-6-66-6/13-13\12-12|
A|10-1010-10\5-xxxx-6-66-6/13-13\12-12|10-1010-10\5-xxxx-6-66-6/13-13\12-12|
E|8 -8 8 -8 \3-xxxx-4-44-4/11-11\10-10|8 -8 8 -8 \3-xxxx-4-44-4/11-11\10-10|


(Lead)
e|---------------------------------|--------------------------------|
B|-4--1-4-1-3--1-3-1-4--1-4-1/8-6--|-4--1-4-1-3--1-3-1-1--1-1-------|
G|-----------------------------5-5-|--------------------------3-3-0-|
D|---------------------------------|--------------------------------|
A|---------------------------------|--------------------------------|
E|---------------------------------|--------------------------------|

(Rhythm)
e|------------------------------------|------------------------------------|
B|------------------------------------|------------------------------------|
G|------------------------------------|------------------------------------|
D|10-1010-10\5-xxxx-6-66-6/13-13\12-12|10-1010-10\5-xxxx-6-66-6/13-13\12-12|
A|10-1010-10\5-xxxx-6-66-6/13-13\12-12|10-1010-10\5-xxxx-6-66-6/13-13\12-12|
E|8 -8 8 -8 \3-xxxx-4-44-4/11-11\10-10|8 -8 8 -8 \3-xxxx-4-44-4/11-11\10-10|


Verse  [Rhythm Only]

(Softly)
e|--------------------------------|--------------------------------|
B|--------------------------------|--------------------------------|
G|--------------------------------|--------------------------------|
D|--------------------------------|--------------------------------|
A|10-1010-10\5--5--5/6-6/13-13\12-|10-1010-10\5--5--5/6-6/13-13\12-|
E|8 -8 8 -8 \3--3--3/4-4/11-11\10-|8 -8 8 -8 \3--3--3/4-4/11-11\10-|

e|--------------------------------|--------------------------------|
B|--------------------------------|--------------------------------|
G|--------------------------------|--------------------------------|
D|--------------------------------|--------------------------------|
A|10-1010-10\5--5--5/6-6/13-13\12-|10-1010-10\5--5--5/6-6/13-13\12-|
E|8 -8 8 -8 \3--3--3/4-4/11-11\10-|8 -8 8 -8 \3--3--3/4-4/11-11\10-|


Chorus  [Rhythm Only]

(Louder)
e|----------------------------------|----------------------------------|
B|----------------------------------|----------------------------------|
G|----------------------------------|----------------------------------|
D|1515151515151515\13131313/17171717|1515151515151515\13131313/17171717|
A|1515151515151515\13131313/17171717|1515151515151515\13131313/17171717|
E|1313131313131313\11111111/15151515|1313131313131313\11111111/15151515|

e|--------------------------------|
B|--------------------------------|
G|--------------------------------|
D|131313131313xxxx121212121212xxxx|
A|131313131313xxxx121212121212xxxx|
E|111111111111xxxx101010101010xxxx|

Bridge  [Lead Comes In]

(Lead)
e|---------------------------------|--------------------------------|
B|-4--1-4-1-3--1-3-1-4--1-4-1/8-6--|-4--1-4-1-3--1-3-1-1--1-1-------|
G|-----------------------------5-5-|--------------------------3-3-0-|
D|---------------------------------|--------------------------------|
A|---------------------------------|--------------------------------|
E|---------------------------------|--------------------------------|

(Rhythm)
e|------------------------------------|------------------------------------|
B|------------------------------------|------------------------------------|
G|------------------------------------|------------------------------------|
D|10-1010-10\5-xxxx-6-66-6/13-13\12-12|10-1010-10\5-xxxx-6-66-6/13-13\12-12|
A|10-1010-10\5-xxxx-6-66-6/13-13\12-12|10-1010-10\5-xxxx-6-66-6/13-13\12-12|
E|8 -8 8 -8 \3-xxxx-4-44-4/11-11\10-10|8 -8 8 -8 \3-xxxx-4-44-4/11-11\10-10|


Verse  [Rhythm Only]

e|------------------------------------|------------------------------------|
B|------------------------------------|------------------------------------|
G|------------------------------------|------------------------------------|
D|10-1010-10\5-xxxx-6-66-6/13-13\12-12|10-1010-10\5-xxxx-6-66-6/13-13\12-12|
A|10-1010-10\5-xxxx-6-66-6/13-13\12-12|10-1010-10\5-xxxx-6-66-6/13-13\12-12|
E|8 -8 8 -8 \3-xxxx-4-44-4/11-11\10-10|8 -8 8 -8 \3-xxxx-4-44-4/11-11\10-10|

e|------------------------------------|------------------------------------|
B|------------------------------------|------------------------------------|
G|------------------------------------|------------------------------------|
D|10-1010-10\5-xxxx-6-66-6/13-13\12-12|10-1010-10\5-xxxx-6-66-6/13-13\12-12|
A|10-1010-10\5-xxxx-6-66-6/13-13\12-12|10-1010-10\5-xxxx-6-66-6/13-13\12-12|
E|8 -8 8 -8 \3-xxxx-4-44-4/11-11\10-10|8 -8 8 -8 \3-xxxx-4-44-4/11-11\10-10|


Chorus  [Rhythm Only]

e|----------------------------------|----------------------------------|
B|----------------------------------|----------------------------------|
G|----------------------------------|----------------------------------|
D|1515151515151515\13131313/17171717|1515151515151515\13131313/17171717|
A|1515151515151515\13131313/17171717|1515151515151515\13131313/17171717|
E|1313131313131313\11111111/15151515|1313131313131313\11111111/15151515|

e|--------------------------------|--------------------------------|
B|--------------------------------|--------------------------------|
G|--------------------------------|--------------------------------|
D|131313131313xxxx121212121212xxxx|131313131313xxxx121212121212xxxx|
A|131313131313xxxx121212121212xxxx|131313131313xxxx121212121212xxxx|
E|111111111111xxxx101010101010xxxx|111111111111xxxx101010101010xxxx|


Pre-Chorus

(Rhythm - Slightly Softer)
e|--------------------------------|--------------------------------|
B|--------------------------------|--------------------------------|
G|--------------------------------|--------------------------------|
D|--------------------------------|--------------------------------|
A|10-1010-10\5-xxxx-/6-6/13-13\12-|10-1010-10\5-xxxx-/6-6/13-13\12-|
E|8 -8 8 -8 \3-xxxx-/4-4/11-11\10-|8 -8 8 -8 \3-xxxx-/4-4/11-11\10-|

e|--------------------------------|--------------------------------|
B|--------------------------------|--------------------------------|
G|--------------------------------|--------------------------------|
D|--------------------------------|--------------------------------|
A|10-1010-10\5-xxxx-/6-6/13-13\12-|10-1010-10\5-xxxx-/6-6/13-13\12-|
E|8 -8 8 -8 \3-xxxx-/4-4/11-11\10-|8 -8 8 -8 \3-xxxx-/4-4/11-11\10-|

[Lead Only]

(Lead)
e|---------------------------------|--------------------------------|
B|-4--1-4-1-3--1-3-1-4--1-4-1/8-6--|-4--1-4-1-3--1-3-1-1--1-1-------|
G|-----------------------------5-5-|--------------------------3-3-0-|
D|---------------------------------|--------------------------------|
A|---------------------------------|--------------------------------|
E|---------------------------------|--------------------------------|

e|---------------------------------|--------------------------------|
B|-4--1-4-1-3--1-3-1-4--1-4-1/8-6--|-4--1-4-1-3--1-3-1-1--1-1-------|
G|-----------------------------5-5-|--------------------------3-3-0-|
D|---------------------------------|--------------------------------|
A|---------------------------------|--------------------------------|
E|---------------------------------|--------------------------------|


Chorus [Rhythm Only]

e|----------------------------------|----------------------------------|
B|----------------------------------|----------------------------------|
G|----------------------------------|----------------------------------|
D|1515151515151515\13131313/17171717|1515151515151515\13131313/17171717|
A|1515151515151515\13131313/17171717|1515151515151515\13131313/17171717|
E|1313131313131313\11111111/15151515|1313131313131313\11111111/15151515|

e|--------------------------------|--------------------------------|
B|--------------------------------|--------------------------------|
G|--------------------------------|--------------------------------|
D|131313131313xxxx121212121212xxxx|131313131313xxxx121212121212xxxx|
A|131313131313xxxx121212121212xxxx|131313131313xxxx121212121212xxxx|
E|111111111111xxxx101010101010xxxx|1!1111111111xxxx101010101010xxxx|


Outro

(Lead)
e|---------------------------------|--------------------------------|
B|-4--1-4-1-3--1-3-1-4--1-4-1/8-6--|-4--1-4-1-3--1-3-1-1--1-1-------|
G|-----------------------------5-5-|--------------------------3-3-0-|
D|---------------------------------|--------------------------------|
A|---------------------------------|--------------------------------|
E|---------------------------------|--------------------------------|

(Rhythm)
e|------------------------------------|------------------------------------|
B|------------------------------------|------------------------------------|
G|------------------------------------|------------------------------------|
D|10-1010-10\5-xxxx-6-66-6/13-13\12-12|10-1010-10\5-xxxx-6-66-6/13-13\12-12|
A|10-1010-10\5-xxxx-6-66-6/13-13\12-12|10-1010-10\5-xxxx-6-66-6/13-13\12-12|
E|8 -8 8 -8 \3-xxxx-4-44-4/11-11\10-10|8 -8 8 -8 \3-xxxx-4-44-4/11-11\10-10|

(Lead)
e|---------------------------------|--------------------------------|
B|-4--1-4-1-3--1-3-1-4--1-4-1/8-6--|-4--1-4-1-3--1-3-1-1--1-1-------|
G|-----------------------------5-5-|--------------------------3-3-0-|
D|---------------------------------|--------------------------------|
A|---------------------------------|--------------------------------|
E|---------------------------------|--------------------------------|

(Rhythm)
e|------------------------------------|------------------------------------|
B|------------------------------------|------------------------------------|
G|------------------------------------|------------------------------------|
D|10-1010-10\5-xxxx-6-66-6/13-13\12-12|10-1010-10\5-xxxx-6-66-6/13-13\12-12|
A|10-1010-10\5-xxxx-6-66-6/13-13\12-12|10-1010-10\5-xxxx-6-66-6/13-13\12-12|
E|8 -8 8 -8 \3-xxxx-4-44-4/11-11\10-10|8 -8 8 -8 \3-xxxx-4-44-4/11-11\10-10|

(Lead)
e|---------------------------------|--------------------------------|
B|-4--1-4-1-3--1-3-1-4--1-4-1/8-6--|-4--1-4-1-3--1-3-1-1--1-1-------|
G|-----------------------------5-5-|--------------------------3-3-0-|
D|---------------------------------|--------------------------------|
A|---------------------------------|--------------------------------|
E|---------------------------------|--------------------------------|

(Rhythm)
e|------------------------------------|------------------------------------|
B|------------------------------------|------------------------------------|
G|------------------------------------|------------------------------------|
D|10-1010-10\5-xxxx-6-66-6/13-13\12-12|10-1010-10\5-xxxx-6-66-6/13-13\12-12|
A|10-1010-10\5-xxxx-6-66-6/13-13\12-12|10-1010-10\5-xxxx-6-66-6/13-13\12-12|
E|8 -8 8 -8 \3-xxxx-4-44-4/11-11\10-10|8 -8 8 -8 \3-xxxx-4-44-4/11-11\10-10|
            
Submit corrections

comments powered by Disqus
↑ Back to top | Vast Tabs for I Woke Up La. Lyrics for acoustic guitar and electric guitar. 1 Tablatures and chords are parodies/interpretations of the original songs. You may use it for private study, scholarship, research or language learning purposes only