» » »

Vast, I'm Dying Bass tabs (ver.1)

Artists:  A B C D E F G H I J K L M N O P Q R S T U V W X Y Z # 

I'm Dying Bass tabs (ver.1)

Vast Tabs
 Rating:
4/5 (4 votes)
I'm Dying lessons Tabs too difficult? Try these video lessons and learn fast
                Member of the Bass Tab Archive Tabbing Army ~

Yet another great Vast song:

Into progression is: 
Em - D - C - Em - Em - D - Em - A - C - Em - A - C

Bass comes in at 1:10:
For the most part is sounds like the bass is in unison with the kick drum:

G|--------------------------------------------------------------------|
D|--------------------------------------------------------------------|
A|--------------------------------------------------------------------|
E|-\0--7-7--3-5--0-0---0-0---0--0-------------------------------------| x2



G|--------------------------------------------------------------------|
D|--------------------------------------------------------------------|
A|-0-0--0--0---3--3--3-3-----------2--4-4--4--4---3-3--3--3-----------|
E|------------------------0--2--3-------------------------------------|




G|--------------------------------------------------------------------|
D|--------------------------------------------------------------------|
A|----------------------------------0--0--0---0-0--3-3--3---3---------|
E|--0--7-7--3-5--0-0---5-5---5--5-------------------------------------|



G|--------------------------------------------------------------------|
D|--------------------------------------------------------------------|
A|--------------------5--5--5---5-------------------------------------|
E|-0--7-7--3-5--0--0--------------------------------------------------|



G|--------------------------------------------------------------------|
D|--------------------------------------------------------------------|
A|--------------------------------------------------------------------|
E|-\0--7-7--3-5--0-0---0-0---0--0-------------------------------------| x2



G|--------------------------------------------------------------------|
D|--------------------------------------------------------------------|
A|-0-0--0--0---3--3--3-3-----------2--4-4--4--4---3-3--3--3-----------|
E|------------------------0--2--3-------------------------------------|


Then play through the middle progression again and then into this part
(2:25):

G|--------------------------------------------------------------------|
D|--------------------------------------------------------------------|
A|--------------------------------------------------------------------|
E|-0-0--3\0--0--------------------------------------------------------| x4

Then the final riff:

G|--------------------------------------------------------------------|
D|--------------------------------------------------------------------|
A|---------------------5-5---5-5-5--5---------------------------------|
E|--0--6-6--3--5--0-0------------------3-3--3-3-3--5-5--5-5-3-5-3\----|

Play until finish...
Enjoy!
Questions/Comments/Corrections - Email me!
            
Submit corrections

comments powered by Disqus
↑ Back to top | Vast Bass for I'm Dying. Lyrics for acoustic guitar and electric guitar. Tablatures and chords are parodies/interpretations of the original songs. You may use it for private study, scholarship, research or language learning purposes only