» » »

Here Tabs (ver.1)

Artists:  A B C D E F G H I J K L M N O P Q R S T U V W X Y Z # 

Here Tabs (ver.1)

Vast
Rating:
0/5 (0 votes)

Hard to play? Try these video lessons and learn fast.
                
Drop Db tuning:

Intro:
Strings until distorted bass comes in (1:04):

Gb|--------------------------------|
Db|-0--2----0--2----0--2----0--2---|
Ab|--------------------------------| x2
Db|--------------------------------|


Verse (1,2,outro):

eb|-------------------------------|
Bb|-------------------------------|
Gb|-------------------------------|
Db|-0-0-2--X-X---X-0-0-2--X-X-X-X-| x16
Ab|-0-0-2--X-X---X-0-0-2--X-X-X-X-|
Db|-0-0-2--X-X---X-0-0-2--X-X-X-X-|

(Mute the strings on the 4th fret & palm mute)



Chorus 1&2 (Bass root notes, Strings fill here):

F#m C#m F#maj F#m/A F#m C#m 
Gb|-0-------|---------|-0-----------|-----------|
Db|---------|-0-------|-------------|-------0---|
Ab|---------|---------|--------1----|-1---------|
Db|---------|---------|-------------|-----------|

Verse 2
Chorus 2

Bridge:
Bass root notes:
C#m F#maj/A# F#m/A C#m/G# G#maj/C F#m/A C#m/G# 
C#m/E
Gb|---------|---------|---------|---------|---------|---------|---------|---------|
Db|-0-------|---------|---------|---------|---------|---------|---------|---------|
Ab|---------|-2-------|-1-------|-0-------|-4-------|-1-------|---------|---------|
Db|---------|---------|---------|---------|---------|---------|-5-------|-3-------|
(have I been telling lies to myself?...)

C#m F#maj/A# F#m/A C#m/G# G#maj/C C#m F#m/A 
C#m/G#
Gb|---------|---------|---------|---------|---------|---------|---------|---------|
Db|-0-------|---------|---------|---------|---------|-0-------|---------|---------|
Ab|---------|-2-------|-1-------|-0-------|-4-------|---------|-1-------|-0-------|
Db|---------|---------|---------|---------|---------|---------|---------|---------|


Bass:
Gb|----------------|------------------|
Db|-0-0-----2-2----|------------------|
Ab|----------------|--0-0-------------| x4
Db|----------------|-----------3-3----|
(i looked up and i saw the moon.....)

Back to main riff over long scream, then repeat until song ends.
            
Hard to play? Try these video lessons and learn fast. | Correct




comments powered by Disqus
↑ Back to top | Tablatures and chords are parodies/interpretations of the original songs. You may use it for private study, scholarship, research or language learning purposes only