» » »

Vast, Blue Bass tabs (ver.1)

Artists:  A B C D E F G H I J K L M N O P Q R S T U V W X Y Z # 

Blue Bass tabs (ver.1)

Vast Tabs
Rating:
0/5 (0 votes)
Blue lessons Tabs too difficult? Try these video lessons and learn fast
                
 VAST
"Blue" Bass tab STD tuning EADG

0:07 Intro fade in (verse)
Just alternate the two variations until the Chorus comes

-------------------------------------------5------------|
-----------------6h8-6-6-6-------------6h8---6----------|
--(4)(4)-3-3-1-1-----------4-4-3-3-1-1---------6--------|
--------------------------------------------------------|

Chorus
------------------------------------------------------------------------|
------------------------------4-3---------------------------------------|
--4-443---4-443----------6--6------6-4-443---4-4443-----------6-66-64---|
--------6-------6-4-44-4-------------------6--------6-4-44-4------------|

Bridge no Bass

1:50: Intro/verse again. (No fade in)

Chorus again but this time with a slight variation:
--------------------------------------------------------------|
-----------------------------------4-3------------------------|
--4-443----4-44---------------6-6------6--------repeat--------|
--------6-------4-6-4-44-4/(6)--------------------------------|

Listen to the record to hear those C# and G# fastening,
He seems to add some notes to get that crescendo feeeling for the ending:

-------------------|
-------------------|
-4-(C#)------------|
--------4-(G#)-----|

Ending: 3:08               3:16
---------------------------------------|
---------------------------------------|
-4-let ring----------------------------|
-----------------4--let ring-----------|

Tip: This song uses Capo on guitar (6th fret I believe..), the Guitar Pro version 
is correct I think.

Enjoy.
            

comments powered by Disqus
↑ Back to top | Vast Bass for Blue. Lyrics for acoustic guitar and electric guitar. Tablatures and chords are parodies/interpretations of the original songs. You may use it for private study, scholarship, research or language learning purposes only