» » »

My Gods Bigger Than Your God Chords (ver.1)

Artists:  A B C D E F G H I J K L M N O P Q R S T U V W X Y Z # 

My Gods Bigger Than Your God Chords (ver.1)

Vaselines
Rating:
0/5 (0 votes)

Hard to play? Try these video lessons and learn fast.
                   E
e|----------|
B|----------|
G|----------|
D|---2---0--|
A|----0h2---|
E|-0--------| (4x, continues into my god's bigger than your god")

E
My god's bigger than your god 4x

      E                    A            E
He'll slap you down with a smack on the face.
A                         E
Spread your nose all over the place.
E               A      E
Yahweh, buddha, jesus, zeus.
A                          E
Count you out, now one and two
   A                                E
Destroy you all with a stamp of his foot.

   D               A                 E
It makes no sense, makes no sense at all.
     D                A                B  
When you don't follow when you hear me call.

   E
e|----------|
B|----------|
G|----------|
D|---2---0--|
A|----0h2---|
E|-0--------| (4x, continues into my god's bigger than your god")

E
My god's bigger than your god. 4x

E                     A          E                            
Get you in a headlock twist your arm.
A                              E
Listen boy i'm going to do you harm.
E               A      E
Yahweh, buddha, jesus, zeus.
A                                   E
Knock you out with one blast of his tune.
A                                 E
Rip you up with a swift left hook soon.

   D               A                 E
It makes no sense, makes no sense at all.
     D                A                B  
When you don't follow when you hear me call.

Solo riff  
   A              E      B              E
e|-----5--------------12-----7--------------12-|
B|---------------------------------------------|
G|-4^-----11^\11--7/9----6^-----14^\14--7/9----|
D|---------------------------------------------|
A|---------------------------------------------|
E|---------------------------------------------|

   A              E      B
e|-----5--------------12-----7-----------------|
B|---------------------------------------------|
G|-4^-----11^\11--7/9----6^-----14^------------|
D|---------------------------------------------|
A|---------------------------------------------|
E|---------------------------------------------|

   A              E      B              E
e|-----5--------------12-----7--------------12-|
B|---------------------------------------------|
G|-4^-----11^\11--7/9----6^-----14^\14--7/9----|
D|---------------------------------------------|
A|---------------------------------------------|
E|---------------------------------------------|

   A              E      B
e|-----5--------------12-----7--7--9--11-------|
B|---------------------------------------------|
G|-4^-----11^\11--7/9----6^-----9--10-11-------|
D|---------------------------------------------|
A|---------------------------------------------|
E|---------------------------------------------|

   E
e|----------|
B|----------|
G|----------|
D|---2---0--|
A|----0h2---|
E|-0--------| (4x, continues into my god's bigger than your god")

E
My god's bigger than your god 4x

E                     A         E
Scratch your eyes and pull your hair,
    A                            E
the gloves are off, I don't play fair.
E               A      E
Yahweh, buddha, jesus, zeus.
A                                   E
Don't turn your back, don't turn it yet.
A                             E
See the bruises your going to get

   D               A                 E
It makes no sense, makes no sense at all.
     D                A                E  
When you don't follow when you hear me call.

Solo riff+chords again

   E
e|----------|
B|----------|
G|----------|
D|---2---0--|
A|----0h2---|
E|-0--------| (4x, then end in E)
            
Hard to play? Try these video lessons and learn fast. | Correct




comments powered by Disqus
↑ Back to top | Tablatures and chords are parodies/interpretations of the original songs. You may use it for private study, scholarship, research or language learning purposes only