» » »

Vasco Rossi, Gli Angeli Tabs (ver.2)

Artists:  A B C D E F G H I J K L M N O P Q R S T U V W X Y Z # 

Gli Angeli Tabs (ver.2)

Vasco Rossi Tabs
Rating:
5/5 (2 votes)
Gli Angeli lessons Tabs too difficult? Try these video lessons and learn fast
                


Author : Vasco Rossi
Song : Gli Angeli
Album : Nessun pericolo per te

To play along the album you have to put a capo on the 2nd fret.So the names
of the actual chords have to be translated a whole tone upwards.
Ex. Cmaj7 --> Dmaj7.
I used the names relative to the capo.Let all of the notes ring.

Verse Part

   Cmaj7                  C(?)                  G
e|---------------0---------------------0----------------------3----------|
B|-------0---------0---0--------3--------3---3----------3-------3--------|
G|-----0---0---------0--------2---2--------2--------0-----0-------0------|
D|---2-------2--------------4-------4-------------0---0-----0------------|
A|-3----------------------3----------------------------------------------|
E|----------------------------------------------3--------------------3-2-|

   Em7
e|----------0----------||
B|-----3------3---3----||
G|---0---0------0------||
D|---------------------||
A|-------------------2-||
E|-0-------------------||
                     |
                     --> to the beginning of the verse


Before going to the chorus, just a brief pause and this little lick :

D-----0h2----|
A-0h2--------|
E----------0-|


Chorus part

   Em7                Am7                D
e|-----------0----------------------0----------0h2---2-----|
B|-----3---3---3---3--------3p1-------1------3---------3---|
G|---0---0-------0--------0-------0--------2-------2-----2-|
D|----------------------2-------2--------0-----------------|
A|--------------------0------------------------------------|
E|-0-------------------------------------------------------|

   G
e|-------3-----3---------|
B|-----3-----3---3-------|
G|---0-----0-------0-----|
D|-----------------------|
A|-----------------------|
E|-3-----------------3-2-|


Bridge part (no singing the piano enters)


   C                B/G             Am7             Em7
e|-------------------------------------------------------------------|
B|---------1----------------3---------------1---------------3--------|
G|-----0-----0---0------0-----0---0-----0-----0---0-----0-----0---0--|
D|---2---2-----2------0---0-----0-----2---2-----2-----2---2-----2----|
A|-3----------------2---------------0--------------------------------|
E|--------------------------------------------------0----------------|

Here are the lyrics to the song :

GLI ANGELI                  ( Vasco)

[Verse part]
QUELLO CHE SI PROVA, NON SI PUO' SPIEGARE QUI
HAI UNA SORPRESA CHE NEANCHE TE LO IMMAGINI
DIETRO NON SI TORNA, NON SI PUO' TORNARE GIU'
QUANDO ORMAI SI VOLA NON SI PUO' CADERE PIU'
VEDI TETTI E CASE E GRANDI PERIFERIE
E VEDI QUANTE COSE SONO SOLO FESSERIE

[Chorus part]
   E DA QUI, E DA QUI, QUI NON ARRIVANO GLI ANGELI
   CON LE LUCCIOLE E LE CICALE
   E DA QUI, E DA QUI, NON LI VEDI PIU' QUELL'ESTATI LI'
   QUELL'ESTATI LI'.

[Verse part]
QUI' E' LOGICO, CAMBIARE MILLE VOLTE IDEA
ED E' FACILE SENTIRSI DA BUTTARE VIA
QUI NON HAI LA SCUSA CHE TI PUO' TENERE SU'
QUI LA NOTTE E' BUIA, E CI SEI SOLTANTO TU
VIVI IN BILICO, E FUMI LE TUE LUCKY STRIKE
E TI RENDI CONTO QUANTO LE MALEDIRAI

[Chorus part]
   E DA QUI, E DA QUI, QUI NON ARRIVANO GLI ORDINI
   A INSEGNARTI LA STRADA BUONA
   E DA QUI, E DA QUI, QUI NON ARRIVANO GLI ANGELI...

( INFRA - GUITAR SOLO TILL END)

I hope I didn't get too far off from the ideal tab, but this is the way I
play it. Contact me if you have comments, suggestions, (maybe requests).
Have fun with it.
            
Submit corrections

comments powered by Disqus
↑ Back to top | Vasco Rossi Tabs for Gli Angeli. Lyrics for acoustic guitar and electric guitar. Tablatures and chords are parodies/interpretations of the original songs. You may use it for private study, scholarship, research or language learning purposes only