>
 >
Gabri 1

Gabri 1 Guitar Tabs

Vasco Rossi - Gabri 1 chords, tabs, tablatures, lyrics

Guitar lessons | Add/correct | Request | Top 50 tabs Artists:  A B C D E F G H I J K L M N O P Q R S T U V W X Y Z 0-9

Gabri 1 Guitar Tabs – Vasco Rossi

CD, Sheet music, Poster

Do you like Gabri 1? Share with your friends now
TabsTabs v2
It's just 6 months i play the guitar and this is the 1st tab I ever wrote.



                                    Gabri                                       


                                                                     Vasco Rossi




     E  E  E  Q    E  Q       H.           E   E     E  E  E  Q    E  Q     
E||----------------0--0----|--L-------------------|----------------0--0----|
B||-----------3------------|----------------------|-----------3------------|
G||--------0--0------------|----------------------|--------0---------------|
D||-----2------------------|----------------------|-----0------------------|
A||--3---------------------|---------------3p--0--|--2---------------------|
E||------------------------|----------------------|------------------------|


  H        E  E  E  E     E  E  E  Q    Q    E     H        H         
--L--------------------|----------------0-------|--------------------|
-----------3-----------|-----------3---------1--|--L-----------------|
--------------0--------|--------0---------------|--------------------|
-----------------------|-----0------------------|--------------------|
--------------------0--|--1---------------------|--------------------|
-----------------3-----|------------------------|-----------3--------|


  E  E  E  Q    Q    E     E  E  E  E  H           E  E  E  E  E   Q.      
----------------0-------|-----------0-----------|-----------0--0h--1------|
-----------3---------3--|--------------3--------|--------3----------------|
--------0--0------------|--------0--------------|-----2-----2-------------|
-----2------------------|-----2-----------------|--0----------------------|
--0---------------------|--0--------------------|-------------------------|
------------------------|-----------------------|-------------------------|


                  ^      ^                                            
  H.           E  E      Q.     Q    E  E  E     E   Q.     H         
--L------------L--8--|---L------1----3--3--3--|--3s--4---------------|
------------------9--|---L--------------------|-------------L--------|
------------------8--|---L--------------------|----------------------|
---------------------|---L--------------------|----------------------|
---------------------|------------------------|----------------------|
---------------------|------------------------|----------------------|


  E   E  E  Q    E  Q       E  E  Q    E   Q.        Q    E  E  E  E  E  E   
-------------------------|------------------------|-------------------------|
---------5--3----5--5----|-----6-------6---5------|-------0--0--1--1--1--1--|
-------------------------|--L--5-------5h---------|-------0--0--0--0--0--0--|
--3s--5------------------|-----5-------5----------|-------0--0--0--0--0--0--|
-------------------------|------------------------|-------------------------|
-------------------------|------------------------|--3----------------------|


  E  E  E  E  E   Q.       
-------------------------||
--2--2--2--2--2s--3------||
--0--0--0--0-------------||
--0--0--0--0-------------||
-------------------------||
-------------------------||




Duration Legend
---------------
W - whole
H - half
Q - quarter
E - 8th
S - 16th
T - 32nd
X - 64th
. - note dotted
|-n-|  - n-tuplets


Tablature Legend
----------------
L - tied note
x - dead note
g - grace note
(n) - ghost note
> - accentuded note
NH - natural harmonic
AH - artificial harmonic
TH - tapped harmonic
SH - semi harmonic
PH - pitch harmonic
h - hammer on
p - pull off
b - bend
br - bendRelease
pb - preBend
pbr - preBendRelease
brb - bendReleaseBend
\n/ - tremolo bar dip
\n - tremolo bar dive
-/n - tremolo bar Release up
/n\ - tremolo bar inverted dip
/n - tremolo bar return
-\n - tremolo bar Release down
S - shift slide
s - legato slide
/ -  slide into from below or out of upwards
\ -  slide into from above or out of downwards
~ - vibrato
W - wide vibrato
tr - trill
TP - tremolo picking
T - tapping
S - slap
P - pop
< - fade in
^ - brush up
v - brush down





Comments


Popular Vasco Rossi tabs & chords
Albachiara Chords
Sally Chords
Una Canzone Per Te 2 Chords
Buoni O Cattivi Tabs
C Chi Dice No Ukulele
Canzone Ukulele
Ce Chi Dice No Ukulele
Dillo Alla Luna Ukulele
Incredibile Romantica Ukulele
Vivere Ukulele


Song lyrics



↑ Back to top | Tablatures and chords are parodies/interpretations of the original songs. You may use it for private study, scholarship, research or language learning purposes only
© 2014 AZChords.com Contact us | Privacy policy | DMCA | Add/correct tabs | Request tabs | Top 50 tabs