» » »

Dormi Dormi Tabs (ver.1)

Artists:  A B C D E F G H I J K L M N O P Q R S T U V W X Y Z # 

Dormi Dormi Tabs (ver.1)

Vasco Rossi
Rating:
0/5 (0 votes)

Hard to play? Try these video lessons and learn fast.
                #------------------------------------------------------------------------------##
#


Here's a very rough contribution to Vasco Rossi's song "Dormi Dormi".It's bascially just
some riffs that are played troughout the song.This work was all done by Gianluca so I thank
him for this job.Contact me for suggestions or corrections.
It's a very rough transcription but I don't have the tape so...

Part 1
Em         D            C              G        Am7         G
------------------------------------|--3---3-3--0---0---0---3------------|
-8------8--7-----7h8p8--5-5-5-------|--3---3-3--1---3---5---3------------|
-9----9----7---7--------5-5-5-------|--0---0-0--0---0---0---0------------|
-9--9------7-7----------5-5-5-------|--0---0-0--2---4---5---0------0-----|
-7---------5------------3-3-3-------|--2---2-2--0---0---0---2--2h3-------|
------------------------------------|--3---3-3--------------3------------|

Part2 (Should be the verse)
G                C                     B/G             Am7         G
------------------------------------|------------------0--0--0-----3-----|
--------0----------------1----------|---------3--------1--1--1-----3-----|
----0-----0---0------0-----0---0----|-----0-----0---0--0--0--0-----0-----|
--0---0-----0------2---2-----2------|---0---0-----0----2--2--2-----0-----|
-----------------3------------------|-2----------------0--0--0-----2-----|
3-----------------------------------|------------------------------3-----|

Part3
D             B7
2--2---2--3---2---2---2-------------|------------------------------------|
3--3---3--3---0---0---0-------------|------------------------------------|
2--2---2--2---2---2---2--To Part 1 -|------------------------------------|
0--0---0--0---1---1---1--I think----|------------------------------------|
--------------2---2---2-------------|------------------------------------|
------------------------------------|------------------------------------|


==========================================================================================
-------------------------------------------------------------------------------------------
      _        Name : Michele Baldessari
  _|     |_
 |         |   "A bad day on the snow is always better than a good day in the school"
 |         |
 |         |
 |         |
-------------------------------------------------------------------------------------------
===========================================================================================
            
Hard to play? Try these video lessons and learn fast. | Correct




comments powered by Disqus
↑ Back to top | Tablatures and chords are parodies/interpretations of the original songs. You may use it for private study, scholarship, research or language learning purposes only