» » »

Come Stai Tabs (ver.3)

Artists:  A B C D E F G H I J K L M N O P Q R S T U V W X Y Z # 

Come Stai Tabs (ver.3)

Vasco Rossi
Rating:
0/5 (0 votes)

Hard to play? Try these video lessons and learn fast.
                
Come stai

7/03/06


E|---------------------9--7---9----|
B|---5-9-7-9---9-7-9----9---7------|
G|-6---------6-------6-------------|
D|---------------------------------|
A|---------------------------------|
E|---------------------------------|

E|------7-9-7----------------------|
B|-7-10-------10-9-----------------|
G|-----------------9---------------|
D|-------------------9-------------|
A|---------------------11-11--11^--|
E|---------------------------------|

E|---------------------------------|
B|---------------------------------|
G|--13-11--13-11-9-----------------|
D|-----------------11--14-14-14-14-|
A|---------------------------------|
E|---------------------------------|

E|---------------------------------|
B|-12----14--14-14-12----14-14-14--|
G|----13--------------13-----------|
D|---------------------------------|
A|---------------------------------|
E|---------------------------------|

E|-----------------16----12----11--|
B|--14-12--------------------------|
G|--------14-13-13----13----13-----|
D|---------------------------------|
A|---------------------------------|
E|---------------------------------|

E|-16-16-14—14^-19-----------------|
B|-----------------9-7-9---9-7-9---|
G|-----------------------6-------6-|
D|---------------------------------|
A|---------------------------------|
E|---------------------------------|

E|---------------------------------|
B|-9-7-9---9-7-9---9-7-9---9-7-9---|
G|-------6-------6-------4-------1-|
D|---------------------------------|
A|---------------------------------|
E|---------------------------------|

E|---------------------------------|
B|--9-7-7^-12----------------------|
G|---------------------------------|
D|---------------------------------|
A|---------------------------------|
E|---------------------------------|
            
Hard to play? Try these video lessons and learn fast. | Correct




comments powered by Disqus
↑ Back to top | Tablatures and chords are parodies/interpretations of the original songs. You may use it for private study, scholarship, research or language learning purposes only