>
 >
Basta Poco

Basta Poco Guitar Tabs

Vasco Rossi - Basta Poco chords, tabs, tablatures, lyrics

Guitar lessons | Add/correct | Request | Top 50 tabs Artists:  A B C D E F G H I J K L M N O P Q R S T U V W X Y Z 0-9

Basta Poco Guitar Tabs – Vasco Rossi

CD, Sheet music, Poster

Do you like Basta Poco? Share with your friends now
Tabs
Basta poco  Vasco Rossi

Riff 1
-----------------------
-----------------------
-----------------------
-----------------------
--7-6h7---6h7-4-6h7----
-------5------------5--

Riff 2
--------------------------------------------
--------------------------------------------
-------8h9--------8h9--------8h9--------8h9-
------------------------6h7-----------------
-6h7--------6h7-------------------6h7-------
--------------------------------------------

Riff 3
--------------------------------------------
--9---9-------10-10------10-10-----10-10----
----9---8h9-----9--8h9-----9--8h9----9--8h9-
--------------------------------------------
--------------------------------------------
--------------------------------------------

Riff 4
----------------------------------------------------
-9-----9-------10--10------10--10------10---10------
---8h9----------8h9---------8h9----------8h9--------
-----------9-----------9------------9------------9--
--------11----------11-----------11-----------11----
----------------------------------------------------

Primo chorus
--------------12-----------
----9-7----------10-9-7----
--9-----9---9-----------9--
---------------------------
---------------------------
---------------------------

-7-----5-----2-----5------7-----5-----2-----
-9-----5-----2-----5------9-----5-----2-----
-9-8h9-6-8h9-2-8h9-6-8h9--9-8h9-6-8h9-2-8h9-
-9-----7-----4-----7------9-----7-----4-----
-7-----7-----4-----7------7-----7-----4-----
-------5-----2-----5------------5-----2-----

-5------7-----5------2-----5---------
-5------9-----5------2-----5---------
-6------9-----6------2-----6---------
-7----9-9---9-7----9-4---9-7-------4-
-7-11---7-11--7-11---4-11--7-4-6-7---
-5------------5------2-----5---------


Pre chorus
-7-----5-----2-----5------7-----5-----2-----5-
-9-----5-----2-----5------9-----5-----2-----5-
-9-8h9-6-8h9-2-8h9-6-8h9--9-8h9-6-8h9-2-8h9-6-
-9-----7-----4-----7------9-----7-----4-----7-
-7-----7-----4-----7------7-----7-----4-----7-
-------5-----2-----5------------5-----2-----5-

-5------7-----5------2-----5---------
-5------9-----5------2-----5---------
-6------9-----6------2-----6---------
-7----9-9---9-7----9-4---9-7-------4-
-7-11---7-11--7-11---4-11--7-4-6-7---
-5------------5------2-----5---------


chorus
-7--5---------2--5---------
-9--5---------2--5---------
-9--6---------2--6---------
-9--7---------4--7---------
-7--7-7-6-4---4--7-7-6-4---
----5-------7-2--5-------7-

solo
----------------------------------------------------------------------------
-12b14-14r12h9---------9---12h9-----------9---------------------------------
---------------11h9-11---------11h9-11b13-----11h9-11h9-11b13r11p9-11S13~~--
----------------------------------------------------------------------------
----------------------------------------------------------------------------
----------------------------------------------------------------------------

----------------------------------------------12~---------------------------
-x-x-x-9--------------------------------12-14----14\---------------17-14\--
-x-x-x-11b13-11h9----9~-11s13~--------13-------------------13-16-16---------
-x-x-x------------11--------------/14------------------/14------------------
----------------------------------------------------------------------------
----------------------------------------------------------------------------

-----------------------------------------------------
-7b9r7p5-----------------------------17--17--17------
---------6----------------------13s14--16--16--14s13-
-----------4-6-7-9-11-13-14-16-----------------------
-----------------------------------------------------
-----------------------------------------------------


--------------------/16-16-16-14-12-/17-16-16-16----------
-12h14p12--12--------------------------------------12-14~-
---------14--13-14----------------------------------------
----------------------------------------------------------
----------------------------------------------------------
----------------------------------------------------------

--------------------------------------------17----
-12-14-12p15h12-----------14-14-17-14-19-14-------
----------------13/14-16--------------------------
--------------------------------------------------
--------------------------------------------------
--------------------------------------------------

-17h16h14---14-17h16h14--14-19h17h14-19h17h14-19h17h14-14-
----------17-----------17----------------------------19---
----------------------------------------------------------
----------------------------------------------------------
----------------------------------------------------------
----------------------------------------------------------

-17h16h14---14-17h16h14--14-17h16h14--14-
----------17-----------17------------17
-----------------------------------------
-----------------------------------------
-----------------------------------------
-----------------------------------------

-19h17h14--14-19h17h14--14-19h17h14--14-14-17-16-----
---------19-----------19-----------19------------17--
-----------------------------------------------------
-----------------------------------------------------
-----------------------------------------------------
-----------------------------------------------------





Comments


Popular Vasco Rossi tabs & chords
Come Stai Chords
Dillo Alla Luna Chords
Gabri 1 Tabs
Ogni Volta Tabs
Sballi Ravvicinati Del Terzo Tipo Tabs
Come Stai Ukulele
Il Mondo Che Vorrei Ukulele
Ogni Volta Ukulele
Quanti Anni Hai Ukulele
Vivere Ukulele


Song lyrics



↑ Back to top | Tablatures and chords are parodies/interpretations of the original songs. You may use it for private study, scholarship, research or language learning purposes only
© 2014 AZChords.com Contact us | Privacy policy | DMCA | Add/correct tabs | Request tabs | Top 50 tabs