» » »

The End Is Nigh Tabs (ver.1)

Artists:  A B C D E F G H I J K L M N O P Q R S T U V W X Y Z # 

The End Is Nigh Tabs (ver.1)

Varukers
Rating:
0/5 (0 votes)

Hard to play? Try these video lessons and learn fast.
                The Varukers - The End Is Nigh
The Riot City Years (2001)
Standard Tuning EADGBE

-------------
Key:
-------------
. Palm Mute
~ Vibrato
h Hammer-On
p Pull-Off
/ Slide Up
\ Slide Down
-------------


Riff A (0:06)                  4x
||-------------------------------||
||*-----------------------------*||
||--8--8-8-8-8-8-8-6--5-5--6-6---||
||--8--8-8-8-8-8-8-6--5-5--6-6---||
||*-6--6-6-6-6-6-6-4--3-3--4-4--*||
||-------------------------------||



Riff B (0:15)                     4x
||----------------------------------||
||*--------------------------------*||
||--8--8-8-8-8-8-8---------6-6-6-6--||
||--8--8-8-8-8-8-8-8-8-8-8-6-6-6-6--||
||*-6--6-6-6-6-6-6-8-8-8-8-4-4-4-4-*||
||-----------------6-6-6-6----------||



Riff C (0:20)
||----------------------------------------------------------------------||
||----------------------------------------------------------------------||
||-6-6-6-6-5-5-5-5-----------------6-6-6-6-5-5-5-5----------------------||
||-6-6-6-6-5-5-5-5-8-8-8-8-6-6-6-6-6-6-6-6-5-5-5-5-8-8-8-8-6-6-6-6-8~---||
||-4-4-4-4-3-3-3-3-8-8-8-8-6-6-6-6-4-4-4-4-3-3-3-3-8-8-8-8-6-6-6-6-8~---||
||-----------------6-6-6-6-4-4-4-4-----------------6-6-6-6-4-4-4-4-6~---||



Riff A (0:28)                  4x
||-------------------------------||
||*-----------------------------*||
||--8--8-8-8-8-8-8-6--5-5--6-6---||
||--8--8-8-8-8-8-8-6--5-5--6-6---||
||*-6--6-6-6-6-6-6-4--3-3--4-4--*||
||-------------------------------||



Riff B (0:38)                     4x
||----------------------------------||
||*--------------------------------*||
||--8--8-8-8-8-8-8---------6-6-6-6--||
||--8--8-8-8-8-8-8-8-8-8-8-6-6-6-6--||
||*-6--6-6-6-6-6-6-8-8-8-8-4-4-4-4-*||
||-----------------6-6-6-6----------||



Riff C (0:43)
||----------------------------------------------------------------------||
||----------------------------------------------------------------------||
||-6-6-6-6-5-5-5-5-----------------6-6-6-6-5-5-5-5----------------------||
||-6-6-6-6-5-5-5-5-8-8-8-8-6-6-6-6-6-6-6-6-5-5-5-5-8-8-8-8-6-6-6-6-8~---||
||-4-4-4-4-3-3-3-3-8-8-8-8-6-6-6-6-4-4-4-4-3-3-3-3-8-8-8-8-6-6-6-6-8~---||
||-----------------6-6-6-6-4-4-4-4-----------------6-6-6-6-4-4-4-4-6~---||



Riff A (0:53)                  4x
||-------------------------------||
||*-----------------------------*||
||--8--8-8-8-8-8-8-6--5-5--6-6---||
||--8--8-8-8-8-8-8-6--5-5--6-6---||
||*-6--6-6-6-6-6-6-4--3-3--4-4--*||
||-------------------------------||



Riff B (1:02)                     4x
||----------------------------------||
||*--------------------------------*||
||--8--8-8-8-8-8-8---------6-6-6-6--||
||--8--8-8-8-8-8-8-8-8-8-8-6-6-6-6--||
||*-6--6-6-6-6-6-6-8-8-8-8-4-4-4-4-*||
||-----------------6-6-6-6----------||



Riff C (1:08)
||----------------------------------------------------------------------||
||----------------------------------------------------------------------||
||-6-6-6-6-5-5-5-5-----------------6-6-6-6-5-5-5-5----------------------||
||-6-6-6-6-5-5-5-5-8-8-8-8-6-6-6-6-6-6-6-6-5-5-5-5-8-8-8-8-6-6-6-6-8~---||
||-4-4-4-4-3-3-3-3-8-8-8-8-6-6-6-6-4-4-4-4-3-3-3-3-8-8-8-8-6-6-6-6-8~---||
||-----------------6-6-6-6-4-4-4-4-----------------6-6-6-6-4-4-4-4-6~---||



Riff A (1:15)                  4x
||-------------------------------||
||*-----------------------------*||
||--8--8-8-8-8-8-8-6--5-5--6-6---||
||--8--8-8-8-8-8-8-6--5-5--6-6---||
||*-6--6-6-6-6-6-6-4--3-3--4-4--*||
||-------------------------------||



Riff B (1:25)                     4x
||----------------------------------||
||*--------------------------------*||
||--8--8-8-8-8-8-8---------6-6-6-6--||
||--8--8-8-8-8-8-8-8-8-8-8-6-6-6-6--||
||*-6--6-6-6-6-6-6-8-8-8-8-4-4-4-4-*||
||-----------------6-6-6-6----------||



Riff C (1:30)
||----------------------------------------------------------------------||
||----------------------------------------------------------------------||
||-6-6-6-6-5-5-5-5-----------------6-6-6-6-5-5-5-5----------------------||
||-6-6-6-6-5-5-5-5-8-8-8-8-6-6-6-6-6-6-6-6-5-5-5-5-8-8-8-8-6-6-6-6-8~---||
||-4-4-4-4-3-3-3-3-8-8-8-8-6-6-6-6-4-4-4-4-3-3-3-3-8-8-8-8-6-6-6-6-8~---||
||-----------------6-6-6-6-4-4-4-4-----------------6-6-6-6-4-4-4-4-6~---||



Outro (1:38)
||----------||
||----------||
||-8--------||
||-8--------||
||-6--------||
||----------||
            
Hard to play? Try these video lessons and learn fast. | Correct




comments powered by Disqus
↑ Back to top | Tablatures and chords are parodies/interpretations of the original songs. You may use it for private study, scholarship, research or language learning purposes only