» » »

Varukers, Tell Us What We All Wanna Hear Tabs (ver.1)

Artists:  A B C D E F G H I J K L M N O P Q R S T U V W X Y Z # 

Tell Us What We All Wanna Hear Tabs (ver.1)

Varukers Tabs
 Rating:
4/5 (4 votes)
Tell Us What We All Wanna Hear lessons Tabs too difficult? Try these video lessons and learn fast
                The Varukers - Tell Us What We All Wanna Hear
The Riot City Years (2001)
Standard Tuning EADGBE

-------------
Key:
-------------
. Palm Mute
~ Vibrato
h Hammer-On
p Pull-Off
/ Slide Up
\ Slide Down
-------------


Riff A (0:00)                      4x
||-----------------------------------||
||*---------------------------------*||
||-----------------------------------||
||--8-8-8-8-8-8-8-8-6-6-6-6-3-3-3-3--||
||*-8-8-8-8-8-8-8-8-6-6-6-6-3-3-3-3-*||
||--6-6-6-6-6-6-6-6-4-4-4-4-1-1-1-1--||



Riff B (0:12)                     2x
||----------------------------------||
||*--------------------------------*||
||--5-5-5-5-5-5-5-5-5-5-5-5-/-8--\--||
||--5-5-5-5-5-5-5-5-5-5-5-5-/-8--\--||
||*-3-3-3-3-3-3-3-3-3-3-3-3-/-6--\-*||
||----------------------------------||



Riff A (0:17)                      4x
||-----------------------------------||
||*---------------------------------*||
||-----------------------------------||
||--8-8-8-8-8-8-8-8-6-6-6-6-3-3-3-3--||
||*-8-8-8-8-8-8-8-8-6-6-6-6-3-3-3-3-*||
||--6-6-6-6-6-6-6-6-4-4-4-4-1-1-1-1--||



Riff B (0:28)                     2x
||----------------------------------||
||*--------------------------------*||
||--5-5-5-5-5-5-5-5-5-5-5-5-/-8--\--||
||--5-5-5-5-5-5-5-5-5-5-5-5-/-8--\--||
||*-3-3-3-3-3-3-3-3-3-3-3-3-/-6--\-*||
||----------------------------------||



Riff A (0:33)                      4x
||-----------------------------------||
||*---------------------------------*||
||-----------------------------------||
||--8-8-8-8-8-8-8-8-6-6-6-6-3-3-3-3--||
||*-8-8-8-8-8-8-8-8-6-6-6-6-3-3-3-3-*||
||--6-6-6-6-6-6-6-6-4-4-4-4-1-1-1-1--||



Riff B (0:44)                       2x
||----------------------------------||
||*--------------------------------*||
||--5-5-5-5-5-5-5-5-5-5-5-5-/-8--\--||
||--5-5-5-5-5-5-5-5-5-5-5-5-/-8--\--||
||*-3-3-3-3-3-3-3-3-3-3-3-3-/-6--\-*||
||----------------------------------||



Fill (0:50)
||----------------------||
||----------------------||
||----------------------||
||-8----8-------8----8--||
||-8----8--rest-8----8--||
||-6----6-------6----6--||



Bridge (0:55)
  Lead                                                             2x
||----------------------------------------------------------13br~----||
||*-----------------13br----11br----11br----13br----14br------------*||
||--10br----12br-----------------------------------------------------||
||-------------------------------------------------------------------||
||*-----------------------------------------------------------------*||
||-------------------------------------------------------------------||
|                                                                     |
| Rhythm                                                              |
||-------------------------------------------------------------------||
||*-----------------------------------------------------------------*||
||-------------------------------------------------------------------||
||--8-8-8-8-8-8-8-8-6-6-6-6-3-3-3-3-8-8-8-8-8-8-8-8-6-6-6-6-3-3-3-3--||
||*-8-8-8-8-8-8-8-8-6-6-6-6-3-3-3-3-8-8-8-8-8-8-8-8-6-6-6-6-3-3-3-3-*||
||--6-6-6-6-6-6-6-6-4-4-4-4-1-1-1-1-6-6-6-6-6-6-6-6-4-4-4-4-1-1-1-1--||



Riff B (1:06)                     2x
||----------------------------------||
||*--------------------------------*||
||--5-5-5-5-5-5-5-5-5-5-5-5-/-8--\--||
||--5-5-5-5-5-5-5-5-5-5-5-5-/-8--\--||
||*-3-3-3-3-3-3-3-3-3-3-3-3-/-6--\-*||
||----------------------------------||



Riff A (1:11)                      4x
||-----------------------------------||
||*---------------------------------*||
||-----------------------------------||
||--8-8-8-8-8-8-8-8-6-6-6-6-3-3-3-3--||
||*-8-8-8-8-8-8-8-8-6-6-6-6-3-3-3-3-*||
||--6-6-6-6-6-6-6-6-4-4-4-4-1-1-1-1--||



Riff B (1:22)                     2x
||----------------------------------||
||*--------------------------------*||
||--5-5-5-5-5-5-5-5-5-5-5-5-/-8--\--||
||--5-5-5-5-5-5-5-5-5-5-5-5-/-8--\--||
||*-3-3-3-3-3-3-3-3-3-3-3-3-/-6--\-*||
||----------------------------------||



Fill (1:27)
||----------------------||
||----------------------||
||----------------------||
||-8----8-------8----8--||
||-8----8--rest-8----8--||
||-6----6-------6----6--||
            
Submit corrections

comments powered by Disqus
↑ Back to top | Varukers Tabs for Tell Us What We All Wanna Hear. Lyrics for acoustic guitar and electric guitar. Tablatures and chords are parodies/interpretations of the original songs. You may use it for private study, scholarship, research or language learning purposes only