» » »

No Hope Of A Future Tabs (ver.1)

Artists:  A B C D E F G H I J K L M N O P Q R S T U V W X Y Z # 

No Hope Of A Future Tabs (ver.1)

Varukers
Rating:
0/5 (0 votes)

Hard to play? Try these video lessons and learn fast.
                -----------------------------------------------------------------
No Hope of A Future - The Varukers
-----------------------------------------------------------------

Tuning:Standard

Verse:
e|---------------------------------------------------------------|
B|---------------------------------------------------------------|
G|---------------------------------------------------------------|
D|-999999999-12-9-666666666--------------------------------------|
A|-999999999-12-9-666666666--------------------------------------|
E|-777777777-10-7-444444444--------------------------------------|

Chorus:
e|---------------------------------------------------------------|
B|---------------------------------------------------------------|
G|---------------------------------------------------------------|
D|-1212-99-666666------------------------------------------------|
A|-1212-99-666666------------------------------------------------|
E|-1010-77-444444------------------------------------------------|

Don't know the solo people, sorry.

| / slide up
| \ slide down
| h hammer-on
| p pull-off
| ~ vibrato
| + harmonic
| x Mute note
            
Hard to play? Try these video lessons and learn fast. | Correct




comments powered by Disqus
↑ Back to top | Tablatures and chords are parodies/interpretations of the original songs. You may use it for private study, scholarship, research or language learning purposes only