» » »

Varukers, I Dont Wanna Be A Victim Tabs (ver.1)

Artists:  A B C D E F G H I J K L M N O P Q R S T U V W X Y Z # 

I Dont Wanna Be A Victim Tabs (ver.1)

Varukers Tabs
 Rating:
4/5 (4 votes)
I Dont Wanna Be A Victim lessons Tabs too difficult? Try these video lessons and learn fast
                            THE VARUKERS

         I  Dont Wanna be a Victim

         verse 1 play 6 times
e------------------------------------------------------------------------|
B------------------------------------------------------------------------|
G-----7-7-7-7-7-7---------------5-5-5-5-5-5---10-10-10--9----7-----------|
D-----7-7-7-7-7-7--9-9-9-9-9-9--5-5-5-5-5-5---10-10-10--9----7-----------|
A-----5-5-5-5-5-5--9-9-9-9-9-9--3-3-3-3-3-3---8--8--8---7----5-----------|
E------------------7-7-7-7-7-7-------------------------------------------|

         chorus play 2 times
e------------------------------------------------------------------------|
B------------------------------------------------------------------------|
G------9/-10-10-10-10-10/-7-7-7-7-7-7/-9-9-9-9-9-9-9-9-9-----------------|
D------9/-10-10-10-10-10/-7-7-7-7-7-7/-9-9-9-9-9-9-9-9-9-----------------|
A------7/-8--8--8--8--8-/-5-5-5-5-5-5/-7-7-7-7-7-7-7-7-7-----------------|
E------------------------------------------------------------------------|

       verse 2 play 2 times
e------------------------------------------------------------------------|
B------------------------------------------------------------------------|
G--(-7-)------7-7----5----(-7-)------10-10-10-10-9-----------------------|
D--(-7-)------7-7----5----(-7-)------10-10-10-10-9-----------------------|
A--(-5-)------5-5----3----(-5-)------8--8--8--8--7-----------------------|
E------------------------------------------------------------------------|

-Repeats this pattern 5 times-

        outro (end) play 1 time
e------------------------------------------------------------------------|
B------------------------------------------------------------------------|
G-----10-10-10-10---9---10-10-10-10---9---10-10-10-10---9-(-7-)----------|
D-----10-10-10-10---9---10-10-10-10---9---10-10-10-10---9-(-7-)----------|
A-----8--8--8--8----7---8--8--8--8----7---8--8--8--8----7-(-5-)----------|
E------------------------------------------------------------------------|

/ = slide    ( ) = lets ring


  
            
Submit corrections

comments powered by Disqus
↑ Back to top | Varukers Tabs for I Dont Wanna Be A Victim. Lyrics for acoustic guitar and electric guitar. Tablatures and chords are parodies/interpretations of the original songs. You may use it for private study, scholarship, research or language learning purposes only