» » »

Wayfarer Tabs (ver.1)

Artists:  A B C D E F G H I J K L M N O P Q R S T U V W X Y Z # 

Wayfarer Tabs (ver.1)

Various Artists
Rating:
0/5 (0 votes)

Hard to play? Try these video lessons and learn fast.
                Mike Oldfield, Vangelis, Luar Na Lubre - Jeff Johnson & Brian Dunning - Wayfarer


E:---------------------8---------------8-10--8--------8------------|
B:---------------8p10----10-8-----8-10-----------8p10----10--------|
G:---10--12--10---------------------------------------------10-----|
D:-----------------------------------------------------------------|
A:-----------------------------------------------------------------|
E:-----------------------------------------------------------------|


E:--8--------------------------------------------------------------|
B:-----10--------8-10-11--13h11h10---10p8----8---------------------|
G:--------10--10--------------------------10-----------------------|
D:-----------------------------------------------------------------|
A:-----------------------------------------------------------------|
E:-----------------------------------------------------------------|


E:---------------------8---------------8-10--8--------8------------|
B:---------------8p10----10-8-----8-10-----------8p10----10--------|
G:---10--12--10---------------------------------------------10-----|
D:-----------------------------------------------------------------|
A:-----------------------------------------------------------------|
E:-----------------------------------------------------------------|


E:-----8\-1--------------------------------------------------------|
B:--10-----------8-10-10p11--13h11h10~~~~11h10h8---------8---------|
G:------------10---------------------------------10-9-10-----------|
D:-----------------------------------------------------------------|
A:-----------------------------------------------------------------|
E:-----------------------------------------------------------------|



E:-----------------------------------------------8-------------------------------|
B:---------------------------8p10h8------------8---------------------------------|
G:--7-5-7--9--10p12h10-9-10---------10----9-10------7-9-10p12h10-9-10-9p10h9-7~~~|
D:-------------------------------------------------------------------------------|
A:-------------------------------------------------------------------------------|
E:-------------------------------------------------------------------------------|



E:----------------------------------------8--------------------------------------|
B:--------------------8p10h8------------8----------------------------------------|
G:-7-9-10p12h10-9-10-----------10--9-10-------7-9-10p12h10-9-10-10p12h10-10------|
D:-------------------------------------------------------------------------------|
A:-------------------------------------------------------------------------------|
E:-------------------------------------------------------------------------------|


ending:

E:---------------------8---------------8-8p10--8-------------------|
B:---------------8p10----10-8-----8-10-----------8b10r8------------|
G:---10--12--10------------------------------------------10--------|
D:-----------------------------------------------------------------|
A:-----------------------------------------------------------------|
E:-----------------------------------------------------------------|


E:--8--------------------------------------8-----------------------|
B:-----10----------8-10-10b11--10----10b11~~~10b11-10--8-8b10r8----|
G:--------10----10----------------10----------------------------10-|
D:-----------------------------------------------------------------|
A:-----------------------------------------------------------------|
E:-----------------------------------------------------------------|

        
            
Hard to play? Try these video lessons and learn fast. | Correct




comments powered by Disqus
↑ Back to top | Tablatures and chords are parodies/interpretations of the original songs. You may use it for private study, scholarship, research or language learning purposes only