» » »

Georgia Tabs (ver.1)

Artists:  A B C D E F G H I J K L M N O P Q R S T U V W X Y Z # 

Georgia Tabs (ver.1)

Various
Rating:
0/5 (0 votes)

Hard to play? Try these video lessons and learn fast.
                			     GEORGIA on my mind - various Artists

Tuning: Standard


4/4

   IV.E              IV.G#   G#7       IV.C#m  IX.E6     Am7
e|-4-7-----4-7-----|-x-4-----4-------|-------4-9-7-----|-0---------------|
H|-5-------5-------|---4-----7-------|-----5---9---9-7-|-1---------------|
G|-4-------4-------|---5-----5-------|---6-----9-------|-0---------------|
D|-----------------|---------4-------|---------9-------|-2---------------|
A|-----------------|---------6-------|-4-------x-------|-0---0---3---7---|
E|-0---0---0---0---|04---4---4---4---|---------0-------|-----------------|
  

   IV.E    IX.C#     A6               IV.G#  IV.G#7     IV.C#m
e|-4-7-----9-------|-2-0-----2-0-----|-4---------------|-------------4---|
H|-5-------9-------|-2-2-----2-------|-4-------7-------|-----5---7-------|
G|-4-------10------|-2-2-----2-------|-5---------------|-6-6-------------|
D|---------9-------|-2-------2-------|-6---------------|-----------------|
A|---------11------|-0---0---0---0---|-6---------------|-4---4---4---4---|
E|-0---0---9---9---|-----------------|-4---4---4---4---|-----------------|


   II.F#m7/6         IV.C#m            IV.G#7+/7        IV.C#m
e|-----------------|-----------4-----|-7-7-----6-------|-------------4---|
H|-5-2-5---4-------|-----5---7-------|-5-------5-------|-----5---7-------|
G|-2---2---2-------|-6-6-----4-------|-6-------6-------|-6-6-------------|
D|-2---2---2-------|-6-------6-------|-4---------------|-----------------|
A|-4---4---4-------|-4-------4---0---|-4---------------|-4---4---4---4---|
E|-2---2---2---2---|-----------------|-4---4---4---4---|-----------------|



   Bo C#o  Eo        VII.B7   V.G7      VII.B7        
e|-7---9---12------|-7---7---7---7---|-7---------------|-----------------|
H|-6---8---11------|10--10---6---6---|-10--------------|-----------------|
G|-7---9---12------|-8---8---7---7---|-8---------------|-----------------|
D|-6---8---11------|-7---7---5---5---|-7---------------|-----------------|
A|-----------------|-9---9---5---5---|-9---------------|-----------------|
E|-------------x---|-7---7-----------|-7---7---7---x---|-----------------|
            
Hard to play? Try these video lessons and learn fast. | Correct




comments powered by Disqus
↑ Back to top | Tablatures and chords are parodies/interpretations of the original songs. You may use it for private study, scholarship, research or language learning purposes only