>
 >
Turning Japanese 2

Turning Japanese 2 Guitar Tabs

Vapors - Turning Japanese 2 chords, tabs, tablatures, lyrics

Guitar lessons | Add/correct | Request | Top 50 tabs Artists:  A B C D E F G H I J K L M N O P Q R S T U V W X Y Z 0-9

Turning Japanese 2 Guitar Tabs – Vapors

CD, Sheet music, Poster

Do you like Turning Japanese 2? Share with your friends now
Bass TabsBass Tabs v2Bass Tabs v3ChordsDrum TabsTabsTabs v2Tabs v3Ukulele
song title: turning japanese


this is my first tab so if it's bad just bear with me.  This tab seems fairly accurate 

#### = let ring for 4 seconds
## = let ring for 2 seconds
^ = start on that fret then bend

  Intro:
e|-15-15-15-15-13-13-10-10-13--|
B|-----------------------------|
G|-----------------------------|  x2
D|-----------------------------|
A|-----------------------------|
E|-----------------------------|

  Pre-verse:
e|-----------7-5-3--------------------|
B|-8-8----------------5-5---2-3-4-5---|
G|-7-7---7-7----------4-4-------------|  X2
D|------------------------------------|
A|------------------------------------|
E|------------------------------------|

  End verse fill-in:
e|-------------|
B|-------------|
G|------5--7---|
D|--5---5--7---|
A|--5---3--5---|
E|--3----------|

  Verse 1
e|-----------7-5-3--------------------|
B|-8-8----------------5-5---2-3-4-5---|
G|-7-7---7-7----------4-4-------------|  X2
D|------------------------------------|
A|------------------------------------|
E|------------------------------------|
  I've got your picture...  of me and you
  You wrote "I love you"...  I wrote "me too"

  End verse fill-in:
e|-------------|
B|-------------|
G|------5--7---|
D|--7---5--7---|
A|--7---3--5---|
E|--5----------|
  I sit there staring and theres nothing else to do


  Verse 2
e|-----------7-5-3--------------------------------|
B|-8-8----------------5-5---2-3-4-5---------------|
G|-7-7---7-7----------4-4-------------------------|  X2
D|------------------------------------------------|
A|------------------------------------------------|
E|------------------------------------------------|
  Oh it's in color!...  Your hair is brown
  Your eyes are hazel...  and soft as clouds

  End verse fill-in:
e|-------------|
B|-------------|
G|------5--7---|
D|--7---5--7---|
A|--7---3--5---|
E|--5----------|
  I often kiss you when theres no one else around

  Guitar hook 1:
e|-------------------------------------------------------------------|
B|-------------------------------------------------------------------|
G|-12------9--------------9-9-7-7---12------9-------------9-7-####---|
D|-12--12--9--12-10--10---9-9-7-7---12--12--9--12-10--10--9-7-####---|
A|-10--12--7--12-10--10---7-7-5-5---10--12--7--12-10--10--7-5-####---|
E|-----10-----10-8---8------------------10-----10-8---8--------------|

  Guitar hook fill-in:
e|----------------------------|
B|----------------------------|
G|-7-7-7-7-5--5--2--2--5------|
D|-7-7-7-7-5--5--2--2--5------|
A|-5-5-5-5-3--3--0--0--3------|
E|----------------------------|


  Verse 3
e|-----------7-5-3--------------------|
B|-8-8----------------5-5---2-3-4-5---|
G|-7-7---7-7----------4-4-------------|  X2
D|------------------------------------|
A|------------------------------------|
E|------------------------------------|
                        (I've got your picture)
  I've got your picture  I'd like a million of you all round my cell
  I want a doctor..to take your picture..so i could look at you from
  inside as well

  End verse fill-in:
e|-------------|
B|-------------|
G|------5--7---|
D|--7---5--7---|
A|--7---3--5---|
E|--5----------|
  Now i'm turning up, I'm turning down, I'm turning in, I'm turning 'round

  Chorus 1:
e|-----------------------------------------------------------------------|
B|----------------------------3--1--0------------------------------------|
G|-----------------7777-----0-----------2--5####---------4--2--0---4####-|
D|-55555555555555557777-0h2----------------------0h2-5-------------------|
A|-55555555555555555555--------------------------------------------------|
E|-3333333333333333------------------------------------------------------|
  Turning Japanese I think I'm turning japanese i really think so...
  Turning Japanese I think I'm turning japanese i really think so...

e|------------------------------------------------|
B|---------3--1--0--------------------------------|
G|------0----------2--5####-------5--4--2--0------|
D|-0h2----------------------0h2-5-----------------|
A|------------------------------------------------|
E|------------------------------------------------|
  Turning Japanese I think I'm turning japanese i really think so...
  Turning Japanese I think I'm turning japanese i really think so

  Guitar hook 2:
e|--------------------------------------------------------|
B|--------------------------------------------------------|
G|-------------------------12--7--9-------------9-7-####--|
D|-5--55-4--44-3--33-4--44-12--7--9--12-10--10--9-7-####--|
A|-5--55-4--44-3--33-4--44-10--5--7--12-10--10--7-5-####--|
E|-3--33-2--22-1--11-2--22-----------10-8---8-------------|

  Guitar hook fill-in:
e|----------------------------|
B|----------------------------|
G|-7-7-7-7-5--5--2--2--5------|
D|-7-7-7-7-5--5--2--2--5------|
A|-5-5-5-5-3--3--0--0--3------|
E|----------------------------|

Verse 4
e|-----------7-5-3--------------------|
B|-8-8----------------5-5---2-3-4-5---|
G|-7-7---7-7----------4-4-------------|  X2
D|------------------------------------|
A|------------------------------------|
E|------------------------------------|
                        (I've got your picture)
  I've got your picture  I'd like a million of you all round my cell
  I want a doctor..to take your picture..so i could look at you from
  inside as well

  End verse fill-in:
e|-------------|
B|-------------|
G|------5--7---|
D|--7---5--7---|
A|--7---3--5---|
E|--5----------|
  Now i'm turning up, I'm turning down, I'm turning in, I'm turning 'round

  Chorus 2:
e|--------------------------------------------------------------------------|
B|----------------------------3--1--0---------------------------------------|
G|-----------------7777-----0----------2---5###-------5--4--2--0---4###-----|
D|-55555555555555557777-0h2---------------------0h2-5-----------------------|
A|-55555555555555555555-----------------------------------------------------|
E|-3333333333333333---------------------------------------------------------|
  Turning Japanese I think I'm turning japanese i really think so...
  Turning Japanese I think I'm turning japanese i really think so...

e|--------------------------------------|
B|--------3--1--0---------------5-5##---|
G|-----0----------2---5####-------5##---|
D|-0h2----------------------------5##---|
A|--------------------------------------|
E|--------------------------------------|
  Turning Japanese I think I'm turning japanese i really think so...
  Turning Japanese I think I'm turning japanese i really think so

  Bridge:
e|-------------------------------------------------------------------------|
B|-------------------------------------------------------------------------|
G|-------------------------7--7--7--7---5--5--5--5--5--5--5--5--4--4--4--4-|
D|-5--5--5--5--5--5--5--5--7--7--7--7---5--5--5--5--5--5--5--5--4--4--4--4-|
A|-5--5--5--5--5--5--5--5--5--5--5--5---3--3--3--3--3--3--3--3--2--2--2--2-|
E|-3--3--3--3--3--3--3--3--------------------------------------------------|
  no sex, no drugs, no wine, no women, no fun, no sin, no you, no wonder
  It's dark.  Everyone around me is a total stranger, everyone avoids me
  like a cyclone ranger, everyone.

  Chorus 3A:
e|---------------------------------------------------------------|
B|---------------------------------------------------------------|
G|-------------------7--7--7--7--------------------5--5--5--5----|
D|-5555555555555555--7--7--7--7--3333333333333333--5--5--5--5----|
A|-5555555555555555--5--5--5--5--3333333333333333--3--3--3--3----|
E|-3333333333333333--------------1111111111111111----------------|
  Turning Japanese I think I'm turning japanese i really think so...
  Turning Japanese I think I'm turning japanese i really think so...


  Chorus 3B:
e|---------------------------------------------------------------------------|
B|-----------------------------3-1--0----------------------------------------|
G|-----------------7777------0--------2--5####-------5--4--2--0---4####------|
D|-55555555555555557777-0h2--------------------0h2-5-------------------------|
A|-55555555555555555555------------------------------------------------------|
E|-3333333333333333----------------------------------------------------------|
  Turning Japanese I think I'm turning japanese i really think so...
  Turning Japanese I think I'm turning japanese i really think so...

  Guitar break:
e|-12p10h12-10--10---------------------------------------------------------|
B|------------12--12-12-10-10---10##-10--10--------------------------------|
G|---------------------------12--------12--12-9-12-9--7^-8^-10^-11^-12^-13^|
D|-------------------------------------------------------------------------|
A|-------------------------------------------------------------------------|
E|-------------------------------------------------------------------------|

e|12p10h12-10--10------------------------------------------------------------|
B|-----------12--12-12-10-10--10##-10--10-----------------------------14b15--|
G|--------------------------12-------12--12-9-12-9--7^8^10^11^12^13^---------|
D|---------------------------------------------------------------------------|
A|---------------------------------------------------------------------------|
E|---------------------------------------------------------------------------|

  Chorus 4A:
e|----------------------------------------------------------------|
B|----------------------------------------------------------------|
G|--------7777-------7--5--4--2---5####-------5--4--2--0---4------|
D|555555557777-0h2-5-------------------0h2-5----------------------|
A|555555555555----------------------------------------------------|
E|33333333--------------------------------------------------------|

 Chorus 4B
e|-12p10h12-10--10---------------------------------------------------------|
B|------------12--12-12-10-10---10##-10--10--------------------------------|
G|---------------------------12--------12--12-9-12-9--7^-8^-10^-11^-12^-13^|
D|-------------------------------------------------------------------------|
A|-------------------------------------------------------------------------|
E|-------------------------------------------------------------------------|

Turning japanese I think I'm turning japanese I really think so (think
  so think so think so)
  turning japanese I think I'm turning japanese I really think so

  outro:
e|------------------------------------------------|
B|------------------------------------------------|
G|-------------------------------------10101010---|
D|-5--55-4--44-3--33-4--44-5--55-4--44-10101010---|
A|-5--55-4--44-3--33-4--44-5--55-4--44-8-8-8-8----|
E|-3--33-2--22-1--11-2--22-3--33-2--22------------|

  keep rockin guys!!!!!!





Comments


Popular Vapors tabs & chords
America Bass Tabs
Civic Hall Bass Tabs
Daylight Titans Bass Tabs
Letter From Hiro Bass Tabs
Spring Collection Bass Tabs
Turning Japanese 1 Bass Tabs
Turning Japanese 3 Bass Tabs
Trains Chords
Turning Japanese Tabs
Turning Japanese (Intro) Tabs


Song lyrics



↑ Back to top | Tablatures and chords are parodies/interpretations of the original songs. You may use it for private study, scholarship, research or language learning purposes only
© 2014 AZChords.com Contact us | Privacy policy | DMCA | Add/correct tabs | Request tabs | Top 50 tabs