» » »

Vapors, Turning Japanese Bass tabs (ver.2)

Artists:  A B C D E F G H I J K L M N O P Q R S T U V W X Y Z # 

Turning Japanese Bass tabs (ver.2)

Vapors Tabs
Rating:
5/5 (2 votes)
Turning Japanese lessons Tabs too difficult? Try these video lessons and learn fast
                Guitar Starts first then bass joins in

Intro
G:|-----------------------------------------|
D:|-----------------------------------------|
A:|-10-10-10-10-8----8----5----5----8-------|
E:|-----------------------------------------|

Verse
G:|-----------------------------------------------|X2
D:|-----------------------------------------------|
A:|-----------------------------------------------|
E:|-3-3---3-3---3-3---3-3---0-0---0-0---0-0---0-0-|

G:|--------------------------|
D:|--------------------------|
A:|--------------------------|
E:|-5----3----0--------------|

Pre Chorus A
G:|-------------------------|-0---------------------|
D:|-------2-0-------2-2-0-0-|-------2-0-------2---0-|
A:|----3-------3-3----------|----3-------3-3--------|
E:|-3-----------------------|-----------------------|

G:|-------------------------------------------------|
D:|-------------------------------------------------|
A:|-5---3h5---3h5---3h5---3h5---3h5---3h5---3h5---3-|
E:|-------------------------------------------------|

Chorus
G:|---------------------------------|---------------------------------------|
D:|---------------------------------|---------------------------------------|
A:|---------------------------------|-3----3----3----3----3----3----3----3--|
E:|-3-3-3-3-3-3-3-3-3-3-3-3-3-3-3-3-|---------------------------------------|

G:|---------------------------------|---------------------------------------|
D:|-3-3-3-3-3-3-3-3-3-3-3-3-3-3-3-3-|---------------------------------------|
A:|---------------------------------|-5----5----5----5----5----5----5----5--|
E:|---------------------------------|---------------------------------------|

Post Chorus
G:|---------------------------------|
D:|---------------------------------|
A:|---------------------------------|
E:|-3---3---2---2---1---1---2-------|

Pre Chorus B
G:|-------------------------|
D:|-------2-0-------2-2-0-0-|
A:|----3-------3-3----------|
E:|-3-----------------------|

G:|-------------------------------------------------|
D:|-------------------------------------------------|
A:|-5---3h5---3h5---3h5---3h5---3h5---3h5---3h5---3-|
E:|-------------------------------------------------|


Bridge
G:|-------------------------------------|----------------------------------|
D:|-------------------------------------|----------------------------------|
A:|-------------------------------------|------3-------3-------3--------3--|
E:|------3------3------3------3------3--|----------------------------------|

G:|-------------------------------------|----------------------------------|
D:|------3------3------3------3------3--|----------------------------------|
A:|-------------------------------------|------5--------5-------5-------5--|
E:|-------------------------------------|----------------------------------|

G:|---------------------------------|----------------------------------|
D:|---------------------------------|----------------------------------|
A:|---------------------------------|------3--------3-------3-------3--|
E:|-3-3-3-3-3-3-3-3-3-3-3-3-3-3-3-3-|----------------------------------|

G:|---------------------------------|----------------------------------|
D:|-3-3-3-3-3-3-3-3-3-3-3-3-3-3-3-3-|----------------------------------|
A:|---------------------------------|------5--------5-------5-------5--|
E:|---------------------------------|----------------------------------|

Outro
G:|-------------------------|
D:|-------------------------|
A:|-------------------------|
E:|-3---3---2---2---1-1-1-1-|

ORDER OF PARTS
Intro
Verse x3
Pre Chorus A
Verse
Chorus x2
Post Chorus
Pre Chorus B
Verse
Chorus x2
Bridge
Chorus x5
Post Chorus
Outro
            

comments powered by Disqus
↑ Back to top | Vapors Bass for Turning Japanese. Lyrics for acoustic guitar and electric guitar. Tablatures and chords are parodies/interpretations of the original songs. You may use it for private study, scholarship, research or language learning purposes only