» » »

Vapors, Trains Bass tabs (ver.1)

Artists:  A B C D E F G H I J K L M N O P Q R S T U V W X Y Z # 

Trains Bass tabs (ver.1)

Vapors Tabs
 Rating:
4/5 (4 votes)
Trains lessons Tabs too difficult? Try these video lessons and learn fast
1
                file. If you feel that the content of this file may be violating   
copyright law, you may not use the information displayed here in any way.    
##----------------------------------------------------------------------##

 Trains
 BASSIST: Steve Smith

 
   Fade In                         (A)
G|---------6-4--------------6-4-----|---------6-4--------------6-4-----|
D|-4-4-4-4-----7-6--4-4-4-4-----7-6-|-4-4-4-4-----7-6--4-4-4-4-----7-6-|
A|----------------------------------|----------------------------------|
E|----------------------------------|----------------------------------|


                                   (B)
G|---------6-4--------------6-4-----|---------6-4--------------6-4-----|
D|-4-4-4-4-----7-6--4-4-4-4-----7-6-|-4-4-4-4-----7-6--4-4-4-4-----7-6-|
A|----------------------------------|----------------------------------|
E|----------------------------------|----------------------------------|


                                   (C)
G|---------6-4--------------6-4-----|---------6-4--------------6-4-----|
D|-4-4-4-4-----7-6--4-4-4-4-----7-6-|-4-4-4-4-----7-6--4-4-4-4-----7-6-|
A|----------------------------------|----------------------------------|
E|----------------------------------|----------------------------------|


                                   (D)
G|----------------------------------|----------------------------------|
D|----------------------------------|----------------------------------|
A|----------------------------------|----------------------------------|
E|-2-2-2-2-2-2-2-2-2-2-2-2-2-2-2-2--|-4-4-4-4-4-4-4-4-4-4-4-4-4-4-4-4--|


                                   (E)
G|----------------------------------|----------------------------------|
D|----------------------------------|----------------------------------|
A|-2-2-2-2-2-2-2-2-2-2-2-2-2-2-2-2--|----------------------------------|
E|----------------------------------|-2-2-2-2-2-2-0-0-2-2-2-2-2-2-0-0--|


                                   (F)
G|----------------------------------|----------------------------------|
D|----------------------------------|----------------------------------|
A|----------------------------------|----------------------------------|
E|-2-2-2-2-2-2-2-2-2-2-2-2-2-2-2-2--|-4-4-4-4-4-4-4-4-4-4-4-4-4-4-4-4--|


                                   (G)
G|----------------------------------|----------------------------------|
D|----------------------------------|---------------------4-4-4--2-----|
A|-2-2-2-2-2-2-2-2-2-2-2-2-2-2-2-2--|-------------------------------2/-|
E|----------------------------------|-2-2-2-2-2-2-2-2-2-2--------------|


                                   (H)
G|----------------------------------|-----------6----------------------|
D|-----6-6-7-7-8-8-9----------------|--------8--------6-6-7-7-8-8-9----|
A|-7-----------------6-6-7-7-8-8-9--|-9-9--9-------7-------------------|
E|----------------------------------|----------------------------------|


                                   (I)
G|--------------------------------------------------------------|
D|--------------------------------------------------------------|
A|-6-6-7-7-8-8--9--9--9--9--9--9--9--9--9--9--9--9--9--9--7-----|
E|----------------------------------------------------------9\--|


                                   (J)
G|----------------------------------|----------------------------------|
D|----------------------------------|----------------------------------|
A|----------------------------------|----------------------------------|
E|-2-2-2-2-2-2-2-2-2-2-2-2-2-2-2-2--|-4-4-4-4-4-4-4-4-4-4-4-4-4-4-4-4--|


                                   (K)
G|----------------------------------|----------------------------------|
D|----------------------------------|----------------------------------|
A|-2-2-2-2-2-2-2-2-2-2-2-2-2-2-2-2--|----------------------------------|
E|----------------------------------|-2-2-2-2-2-2-0-0-2-2-2-2-2-2-0-0--|


                                   (L)
G|----------------------------------|----------------------------------|
D|----------------------------------|----------------------------------|
A|----------------------------------|----------------------------------|
E|-2-2-2-2-2-2-2-2-2-2-2-2-2-2-2-2--|-4-4-4-4-4-4-4-4-4-4-4-4-4-4-4-4--|


                                   (M)
G|----------------------------------|----------------------------------|
D|----------------------------------|---------------------4-4-4--2-----|
A|-2-2-2-2-2-2-2-2-2-2-2-2-2-2-2-2--|-------------------------------2/-|
E|----------------------------------|-2-2-2-2-2-2-2-2-2-2--------------|
			

                                   (N)
G|----------------------------------|-----------6----------------------|
D|-----6-6-7-7-8-8-9----------------|--------8--------6-6-7-7-8-8-9----|
A|-7-----------------6-6-7-7-8-8-9--|-9-9--9-------7-------------------|
E|----------------------------------|----------------------------------|


                                   (O)
G|--------------------------------------------------------------|
D|--------------------------------------------------------------|
A|-6-6-7-7-8-8--9--9--9--9--9--9--9--9--9--9--9--9--9--9--7-----|
E|----------------------------------------------------------9\--|


                                   (P)
G|----------------------------------|----------------------------------|
D|----------------------------------|----------------------------------|
A|----------------------------------|----------------------------------|
E|-2-2-2-2-2-2-2-2-2-2-2-2-2-2-2-2--|-4-4-4-4-4-4-4-4-4-4-4-4-4-4-4-4--|


                                   (Q)
G|----------------------------------|----------------------------------|
D|----------------------------------|----------------------------------|
A|-2-2-2-2-2-2-2-2-2-2-2-2-2-2-2-2--|----------------------------------|
E|----------------------------------|-2-2-2-2-2-2-0-0-2-2-2-2-2-2-0-0--|


                                   (R)
G|----------------------------------|----------------------------------|
D|----------------------------------|----------------------------------|
A|----------------------------------|----------------------------------|
E|-2-2-2-2-2-2-2-2-2-2-2-2-2-2-2-2--|-4-4-4-4-4-4-4-4-4-4-4-4-4-4-4-4--|


                                   (S)
G|----------------------------------|----------------------------------|
D|----------------------------------|---------------------4-4-4--2-----|
A|-2-2-2-2-2-2-2-2-2-2-2-2-2-2-2-2--|-------------------------------2/-|
E|----------------------------------|-2-2-2-2-2-2-2-2-2-2--------------|


                                   (T)
G|----------------------------------|-----------6----------------------|
D|-----6-6-7-7-8-8-9----------------|--------8--------6-6-7-7-8-8-9----|
A|-7-----------------6-6-7-7-8-8-9--|-9-9--9-------7-------------------|
E|----------------------------------|----------------------------------|


                                   (U)
G|-----------------------------------------11-----9-----7-----6----|
D|-----------------------------------------------------------------|
A|-6-6-7-7-8-8--9--9--9--9--9--9--9--9--9------7-----5-----4-------|
E|-----------------------------------------------------------------|


                                   (V)
G|---------------------------------------------------------------------|
D|---------------------------------------------------------------------|
A|-4--4-2-4---4-2-4---4-2-4---4-2-4---4-2-4---4-2-4---4-2-4---4-2-4----|
E|---------------------------------------------------------------------|


                                   (W)
G|---------------------------------------------------------------------|
D|---------------------------------------------------------------------|
A|----4-2-4---4-2-4---4-2-4---4-2-4---4-2-4---4-2-4---4-2-4---4-2-4----|
E|---------------------------------------------------------------------|


                                   (X)
G|----------------------------------|-----4-4------4-----4--------4----|
D|-----2-2------2------2-------2----|----------------------------------|
A|----------------------------------|-4-4------4-4---4-4----4--4-------|
E|-2-2------2-2---2-2----2--2-------|----------------------------------|


                                   (Y)
G|-----2-2------2-----2--------2----|----------------------------------|
D|----------------------------------|-----2-2------2------2-------2----|
A|-2-2------2-2---2-2----2--2-------|----------------------------------|
E|----------------------------------|-2-2------2-2---2-2----2--2-------|


                                   (Z)
G|-----4-4------4-----4--------4----|-----2-2------2-----2--------2----|
D|----------------------------------|----------------------------------|
A|-4-4------4-4---4-4----4--4-------|-2-2------2-2---2-2----2--2-------|
E|----------------------------------|----------------------------------|


                                   (AA)
G|----------------------------------|----------------------------------|
D|----------------------------------|----------------------------------|
A|----------------------------------|----------------------------------|
E|-2-2-2-2-2-2-2-2-2-2-2-2-2-2-2-2--|-4-4-4-4-4-4-4-4-4-4-4-4-4-4-4-4--|


                                   (AB)
G|----------------------------------|----------------------------------|
D|----------------------------------|----------------------------------|
A|-2-2-2-2-2-2-2-2-2-2-2-2-2-2-2-2--|----------------------------------|
E|----------------------------------|-2-2-2-2-2-2-2-2-2-2-2-2-2-2-2-2--|


                                   (AC)
G|----------------------------------|----------------------------------|
D|----------------------------------|----------------------------------|
A|----------------------------------|----------------------------------|
E|-2-2-2-2-2-2-2-2-2-2-2-2-2-2-2-2--|-4-4-4-4-4-4-4-4-4-4-4-4-4-4-4-4--|


                                   (AD)
G|----------------------------------|----------------------------------|
D|----------------------------------|----------------------------------|
A|-2-2-2-2-2-2-2-2-2-2-2-2-2-2-2-2--|----------------------------------|
E|----------------------------------|-2-2-2-2-2-2-2-2-2-2-2-2-2-2-2-2--|


                                   (AE)
G|----------------------------------|----------------------------------|
D|----------------------------------|----------------------------------|
A|----------------------------------|----------------------------------|
E|-2-2-2-2-2-2-2-2-2-2-2-2-2-2-2-2--|-4-4-4-4-4-4-4-4-4-4-4-4-4-4-4-4--|


                                   (AF)
G|----------------------------------|----------------------------------|
D|----------------------------------|----------------------------------|
A|-2-2-2-2-2-2-2-2-2-2-2-2-2-2-2-2--|----------------------------------|
E|----------------------------------|-2-2-2-2-2-2-2-2-2-2-2-2-2-2-2-2--|


                                   (AG)
G|----------------------------------|----------------------------------|
D|----------------------------------|----------------------------------|
A|----------------------------------|----------------------------------|
E|-2-2-2-2-2-2-2-2-2-2-2-2-2-2-2-2--|-4-4-4-4-4-4-4-4-4-4-4-4-4-4-4-4--|


                                   (AH)
G|----------------------------------|---------------------------|
D|----------------------------------|---------------------------|
A|-2-2-2-2-2-2-2-2-2-2-2-2-2-2-2-2--|---------------------------|
E|----------------------------------|-2--2-2-0-0-0-2--2-2-0-0-0-|

                                   (AI)
G|----------------------------------|----------------------------------|
D|----------------------------------|----------------------------------|
A|----------------------------------|----------------------------------|
E|-2-2-2-2-2-2-2-2-2-2-2-2-2-2-2-2--|-4-4-4-4-4-4-4-4-4-4-4-4-4-4-4-4--|


                                   (AJ)
G|----------------------------------|----------------------------------|
D|----------------------------------|---------------------4-4-4--2-----|
A|-2-2-2-2-2-2-2-2-2-2-2-2-2-2-2-2--|-------------------------------2/-|
E|----------------------------------|-2-2-2-2-2-2-2-2-2-2--------------|


                                   (AK)
G|----------------------------------|-----------6----------------------|
D|-----6-6-7-7-8-8-9----------------|--------8--------6-6-7-7-8-8-9----|
A|-7-----------------6-6-7-7-8-8-9--|-9-9--9-------7-------------------|
E|----------------------------------|----------------------------------|
			

                                   (AL)
G|-----------------------------------------------------------------|
D|-----------------------------------------------------------------|
A|-6-6-7-7-8-8--9--9--9--9--9--9--9--9--7-7-7-7-7------------------|
E|-------------------------------------------------7-7-7-7-7-------|


                                   (AM)
G|-----------------------------------------|
D|-----------------------------------------|
A|-----------------------------------------|
E|-0--2-2--0--2---2-2--0--2---2-2--0--2*---|
            
Submit corrections

comments powered by Disqus
↑ Back to top | Vapors Bass for Trains. Lyrics for acoustic guitar and electric guitar. 1 Tablatures and chords are parodies/interpretations of the original songs. You may use it for private study, scholarship, research or language learning purposes only