» » »

Sixty Second Interval Bass tabs (ver.1)

Artists:  A B C D E F G H I J K L M N O P Q R S T U V W X Y Z # 

Sixty Second Interval Bass tabs (ver.1)

Vapors
Rating:
5/5 (2 votes)

Hard to play? Try these video lessons and learn fast.
                file. If you feel that the content of this file may be violating   
copyright law, you may not use the information displayed here in any way.    
##----------------------------------------------------------------------##

 Sixty Second Interval
 BASSIST: Steve Smith

 
                                   (A)
G|---------------7----------------7-|---------------7----------------7-|
D|--0---7-9--7-9-----0---7-9--7-9---|--0---7-9--7-9-----0---7-9--7-9---|
A|----------------------------------|----------------------------------|
E|----------------------------------|----------------------------------|



                                   (B)
G|---------------7----------------7-|---------------7------------------|
D|--0---7-9--7-9-----0---7-9--7-9---|--0---7-9--7-9-----0---7-9--7-9-7-|
A|----------------------------------|----------------------------------|
E|----------------------------------|----------------------------------|



                                   (C)
G|----------------------------------|----------------------------------|
D|----------7----------------7------|----------7----------------7------|
A|--0---7-9----7-9---0---7-9----7-9-|--0---7-9----7-9---0---7-9----7-9-|
E|----------------------------------|----------------------------------|



                                   (D)
G|---------------7----------------7-|---------------7------------------|
D|--0---7-9--7-9-----0---7-9--7-9---|--0---7-9--7-9-----0---7-9--7-9-7-|
A|----------------------------------|----------------------------------|
E|----------------------------------|----------------------------------|



                                   (E)
G|----------------------------------|----------------------------------|
D|----------7----------------7------|----------7----------------7------|
A|--0---7-9----7-9---0---7-9----7-9-|--0---7-9----7-9---0---7-9----7-9-|
E|----------------------------------|----------------------------------|



                                   (F)
G|----------------------------------|-----3---5---7---5---3------------|
D|----------------------------------|-5-----------------------5--------|
A|----3--3--3--3---3--3--3--3--3----|----------------------------------|
E|----------------------------------|----------------------------------|



                                   (G)
G|----------------------------------|-10-12-10--10-12-10---10-12-10----|
D|----------------------------10-12-|-------------------------------12-|
A|----------------------------------|----------------------------------|
E|-3--3--3--3---3--3--3--3--3-------|----------------------------------|



                                   (H)
G|----------------------------------|-----3---5---7---5---3------------|
D|----------------------------------|-5-----------------------5--------|
A|----3--3--3--3---3--3--3--3--3----|----------------------------------|
E|----------------------------------|----------------------------------|


                                   (I)
G|----------------------------------|----------------------------------|
D|----------------------------------|----------------------------------|
A|----------------------------------|----------------------------------|
E|-3-3-3-3-3-3-3-3-3-3-3-3-3-2-3-2--|-0-0-0-0-0-0-0-0-0-0-0-0-0-0-0-0--|


                                   (J)
G|----------------------------------|
D|----------------------------------|
A|--------------------------2-2-4-4-|
E|--5-5-5-5-5-5-5-5-5-5-5-5---------|


                                   (K)
G|---------------7----------------7-|---------------7-----------7------|
D|--0---7-9--7-9-----0---7-9--7-9---|--0---7-9--7-9-----0---7-9---9-7--|
A|----------------------------------|----------------------------------|
E|----------------------------------|----------------------------------|


                                   (L)
G|---------------7----------------7-|---------------7----------------7-|
D|--0---7-9--7-9-----0---7-9--7-9---|--0---7-9--7-9-----0---7-9--7-9---|
A|----------------------------------|----------------------------------|
E|----------------------------------|----------------------------------|


                                   (M)
G|---------------7----------------7-|---------------7------------------|
D|--0---7-9--7-9-----0---7-9--7-9---|--0---7-9--7-9-----0---7-9--7-9-7-|
A|----------------------------------|----------------------------------|
E|----------------------------------|----------------------------------|
			

                                   (N)
G|----------------------------------|----------------------------------|
D|----------7----------------7------|----------7----------------7------|
A|--0---7-9----7-9---0---7-9----7-9-|--0---7-9----7-9---0---7-9----7-9-|
E|----------------------------------|----------------------------------|


                                   (O)
G|---------------7----------------7-|---------------7------------------|
D|--0---7-9--7-9-----0---7-9--7-9---|--0---7-9--7-9-----0---7-9--7-9-7-|
A|----------------------------------|----------------------------------|
E|----------------------------------|----------------------------------|


                                   (P)
G|----------------------------------|----------------------------------|
D|----------7----------------7------|----------7----------------7------|
A|--0---7-9----7-9---0---7-9----7-9-|--0---7-9----7-9---0---7-9----7-9-|
E|----------------------------------|----------------------------------|

 Repeat F To J

                                   (Q)
G|---------------7----------------7-|--------------7-----------7-7-----|
D|--0---7-9--7-9-----0---7-9--7-9---|-0---7-9--7-9-----0---7-9-----9-7-|
A|----------------------------------|----------------------------------|
E|----------------------------------|----------------------------------|


                                   (R)
G|----------------------------------|----------------------------------|
D|----------7----------------7------|----------7----------------7------|
A|--0---7-9----7-9---0---7-9----7-9-|--0---7-9----7-9---0---7-9----7-9-|
E|----------------------------------|----------------------------------|


                                   (S)
G|---------------7----------------7-|---------------7------------------|
D|--0---7-9--7-9-----0---7-9--7-9---|--0---7-9--7-9-----0---7-9--7-9-7-|
A|----------------------------------|----------------------------------|
E|----------------------------------|----------------------------------|


                                   (T)
G|----------------------------------|----------------------------------|
D|----------7----------------7------|----------7----------------7------|
A|--0---7-9----7-9---0---7-9----7-9-|--0---7-9----7-9---0---7-9----7-9-|
E|----------------------------------|----------------------------------|


                 
                                   (U)
G|----------------------------------|-----3---5---7---5---3------------|
D|----------------------------------|-5-----------------------5--------|
A|----3--3--3--3---3--3--3--3--3----|----------------------------------|
E|----------------------------------|----------------------------------|



                                   (V)
G|----------------------------------|-10-12-10--10-12-10---10-12-10----|
D|----------------------------10-12-|-------------------------------12-|
A|----------------------------------|----------------------------------|
E|-3--3--3--3---3--3--3--3--3-------|----------------------------------|


                                   (W)
G|----------------------------------|-----3---5---7---5---3------------|
D|----------------------------------|-5-----------------------5--------|
A|----3--3--3--3---3--3--3--3--3----|----------------------------------|
E|----------------------------------|----------------------------------|


                                   (X)
G|----------------------------------|----------------------------------|
D|----------------------------------|----------------------------------|
A|----------------------------------|-3-3-3-3-3-3-3-3-3-3-3-3-3-3-3-3--|
E|-3-3-3-3-3-3-3-3-3-3-3-3-3-3-3-3--|----------------------------------|


                                   (Y)
G|----------------------------------|----------------------------------|
D|----------------------------------|----------------------------------|
A|----------------------------------|-3-3-3-3-3-3-3-3-3-3-3-3-3-3-3-3--|
E|-3-3-3-2-3-3-3-2-3-3-3-2-3-3-3----|----------------------------------|

                                   (Z)
G|----------------------------------|----------------------------------|
D|----------------------------------|----------------------------------|
A|----------------------------------|-3-3-3-3-3-3-3-3-3-3-3-3-3-3-3-3--|
E|-3-3-3-2-3-3-3-2-3-3-3-2-3-3-3----|----------------------------------|


                                   (AA)
G|----------------------------------|----------------------------------|
D|----------------------------------|----------------------------------|
A|----------------------------------|----------------------------------|
E|-3-3-3-2-3-3-3-2-3-3-3-3-2-3-2----|-0-0-0-0-0-0-0-0-0-0-0-0-0-0-0-0--|


                                   (AB)
G|----------------------------------|
D|----------------------------------|
A|--------------------------2-2-4-4-|
E|--5-5-5-5-5-5-5-5-5-5-5-5---------|


                                   (AC)
G|---------------7----------------7-|--------------7-----------7-7-----|
D|--0---7-9--7-9-----0---7-9--7-9---|-0---7-9--7-9-----0---7-9-----9-7-|
A|----------------------------------|----------------------------------|
E|----------------------------------|----------------------------------|


                                   (AD)
G|----------------------------------|------------------------------4---|
D|----------7----------------7------|----------7-----------------------|
A|--0---7-9----7-9---0---7-9----7-9-|--0---7-9----7-9---0--0-0--2------|
E|----------------------------------|----------------------------------|


                                   (AE)
G|-----6------11*-------------------|
D|------------0*--------------------|
A|--4-------------------------------|
E|----------------------------------|
            
Hard to play? Try these video lessons and learn fast. | Correct




comments powered by Disqus
↑ Back to top | Tablatures and chords are parodies/interpretations of the original songs. You may use it for private study, scholarship, research or language learning purposes only