>
 >
News At Ten

News At Ten Bass Tabs

Vapors - News At Ten chords, tabs, tablatures, lyrics

Guitar lessons | Add/correct | Request | Top 50 tabs Artists:  A B C D E F G H I J K L M N O P Q R S T U V W X Y Z 0-9

News At Ten Bass Tabs – Vapors

CD, Sheet music, Poster

Do you like News At Ten? Share with your friends now
Bass Tabs
file. If you feel that the content of this file may be violating   
copyright law, you may not use the information displayed here in any way.    
##----------------------------------------------------------------------##

 News At Ten
 BASSIST: Steve Smith


 Guitar and Drums Intro
                                   (A)
G|----------------------------------|----------------------------------|
D|----------------------------------|----------------------------------|
A|----------------------------------|----------------------2----1----4-|
E|----------------------------------|----------------------------------|



                                   (B)
G|----------------------------------|----------------------------------|
D|-------------8-9-------------7-8--|-------------5-6-------------7-8--|
A|--9--9-9-9-9------8--8-8-8-8------|--6--6-6-6-6------8--8-8-8-8------|
E|----------------------------------|----------------------------------|



                                   (C)
                        G|----------------------|
                        D|---------------3-4-3--|
                        A|-2---1--4--4-4--------|
                        E|----------------------|


                                   (D)
G|----------------------------------|----------------------------------|
D|-------------8-9-------------7-8--|-------------5-6-------------7-8--|
A|--9--9-9-9-9------8--8-8-8-8------|--6--6-6-6-6------8--8-8-8-8------|
E|----------------------------------|----------------------------------|


                                   (E)
                        G|----------------------|
                        D|---------------3-4-3--|
                        A|-2---1--4--4-4--------|
                        E|----------------------|




                                   (F)
G|----------------------------------|----------------------------------|
D|-----------------------------1-2--|----------------------------------|
A|------------3-4----2--2-2--2------|------------1-2--------------1-2--|
E|--4--4-4--4-----------------------|--2--2-2--2--------2--2-2--2------|



                                   (G)
G|----------------------------------|-------------------6-8-6----------|
D|-----------------------------1-2--|---------------6-8-------8-6------|
A|------------3-4----2--2-2--2------|--4--4-4---4-4---------------8-6--|
E|--4--4-4--4-----------------------|----------------------------------|



                                   (H)
G|----------------------------------|----------------------------------|
D|-------------8-9-------------7-8--|-------------5-6-------------3-4--|
A|--9--9-9-9-9------8--8-8-8-8------|--6--6-6-6-6------4--4-4-4-4------|
E|----------------------------------|----------------------------------|


                                   (I)
G|----------------------------------|----------------------------------|
D|-------------8-9-------------7-8--|-------------5-6-------------3-4--|
A|--9--9-9-9-9------8--8-8-8-8------|--6--6-6-6-6------4--4-4-4-4------|
E|----------------------------------|----------------------------------|


                                   (J)
G|----------------------------------|--------6-6-4-4-------------------|
D|----------------------4-4-4-4---4-|----------------6-6---------------|
A|-----------1------------------4---|--9\--4--------------44-66-77-88--|
E|--0--0--2-------------------------|----------------------------------|


                                   (K)
G|----------------------------------|----------------------------------|
D|-------------8-9-------------7-8--|-------------5-6-------------7-8--|
A|--9--9-9-9-9------8--8-8-8-8------|--6--6-6-6-6------8--8-8-8-8------|
E|----------------------------------|----------------------------------|


                                   (L)
                        G|----------------------|
                        D|---------------3-4-3--|
                        A|-2---1--4--4-4--------|
                        E|----------------------|


                                   (M)
G|----------------------------------|----------------------------------|
D|-------------8-9-------------7-8--|-------------5-6-------------7-8--|
A|--9--9-9-9-9------8--8-8-8-8------|--6--6-6-6-6------8--8-8-8-8------|
E|----------------------------------|----------------------------------|
			

                                   (N)
                        G|----------------------|
                        D|---------------3-4-3--|
                        A|-2---1--4--4-4--------|
                        E|----------------------|


                                   (O)
------------------------------------|----------------------------------|
D|-----------------------------1-2--|----------------------------------|
A|------------3-4----2--2-2--2------|------------1-2--------------1-2--|
E|--4--4-4--4-----------------------|--2--2-2--2--------2--2-2--2------|



                                   (P)
G|----------------------------------|-------------------6-8-6----------|
D|-----------------------------1-2--|---------------6-8-------8-6------|
A|------------3-4----2--2-2--2------|--4--4-4---4-4---------------8-6--|
E|--4--4-4--4-----------------------|----------------------------------|



                                   (Q)
G|----------------------------------|----------------------------------|
D|-------------8-9-------------7-8--|-------------5-6-------------3-4--|
A|--9--9-9-9-9------8--8-8-8-8------|--6--6-6-6-6------4--4-4-4-4------|
E|----------------------------------|----------------------------------|


                                   (R)
G|----------------------------------|----------------------------------|
D|-------------8-9-------------7-8--|-------------5-6-------------3-4--|
A|--9--9-9-9-9------8--8-8-8-8------|--6--6-6-6-6------4--4-4-4-4------|
E|----------------------------------|----------------------------------|


                                   (S)
G|----------------------------------|----------------------------------|
D|----------------------4-4-4-4---4-|----------------------4-4-4-4---4-|
A|-----------1------------------4---|-----------1------------------4---|
E|--0--0--2-------------------------|--0--0--2-------------------------|


                                   (T)
G|----------------------------------|----------------------------------|
D|----------3-4-5-6-----3-4-5-6-----|----------------------------------|
A|--9\---4-----------4-----------2--|-2-2-2-2-1-1---4-4-2-2------------|
E|----------------------------------|-----------------------2-2-1-1----|


                                   (U)
G|----------------------------------|----------------------------------|
D|-------------8-9-------------7-8--|-------------5-6-------------7-8--|
A|--9--9-9-9-9------8--8-8-8-8------|--6--6-6-6-6------8--8-8-8-8------|
E|----------------------------------|----------------------------------|


                                   (V)
G|----------------------------------|----------------------------------|
D|-------------8-9-------------7-8--|-------------5-6-------------7-8--|
A|--9--9-9-9-9------8--8-8-8-8------|--6--6-6-6-6------8--8-8-8-8------|
E|----------------------------------|----------------------------------|


                                   (W)
G|----------------------------3-4---5-6---9-10---12-13---15-16--16\----|
D|----------------3-4---5-6--------------------------------------------|
A|--2----1----4--------------------------------------------------------|
E|---------------------------------------------------------------------|


                                   (X)
G|----------------------------------|----------------------------------|
D|-------------8-9-------------7-8--|-------------5-6-------------7-8--|
A|--9--9-9-9-9------8--8-8-8-8------|--6--6-6-6-6------8--8-8-8-8------|
E|----------------------------------|----------------------------------|


                                   (Y)
G|----------------------------------|----------------------------------|
D|-------------8-9-------------7-8--|-------------5-6-------------7-8--|
A|--9--9-9-9-9------8--8-8-8-8------|--6--6-6-6-6------8--8-8-8-8------|
E|----------------------------------|----------------------------------|

                                   (Z)
G|----------------------------------|----------------------------------|
D|-------------8-9-------------7-8--|-------------5-6-------------7-8--|
A|--9--9-9-9-9------8--8-8-8-8------|--6--6-6-6-6------8--8-8-8-8------|
E|----------------------------------|----------------------------------|


                                   (AA)
G|----------------------------------|----------------------------------|
D|-------------8-9-------------7-8--|-------------5-6-------------7-8--|
A|--9--9-9-9-9------8--8-8-8-8------|--6--6-6-6-6------8--8-8-8-8------|
E|----------------------------------|----------------------------------|


                                   (AB)
G|----------------------------------|----------------------------------|
D|----------------------------------|-------------1-2-------------3-4--|
A|-------------1-2-------------0-1--|--2--2-2-2-2------4--4-4-4-4------|
E|--2--2-2-2-2------1--1-1-1-1------|----------------------------------|


                                   (AC)
G|----------------------------------|----------------------------------|
D|----------------------------------|-------------1-2-------------3-4--|
A|-------------1-2-------------0-1--|--2--2-2-2-2------4--4-4-4-4------|
E|--2--2-2-2-2------1--1-1-1-1------|----------------------------------|


                                   (AD)
G|----------------------------------|----------------------------------|
D|-------------8-9-------------7-8--|-------------5-6-------------3-4--|
A|--9--9-9-9-9------8--8-8-8-8------|--6--6-6-6-6------4--4-4-4-4------|
E|----------------------------------|----------------------------------|


                                   (AE)
G|----------------------------------|----------------------------------|
D|-------------8-9-------------7-8--|-------------5-6-------------3-4--|
A|--9--9-9-9-9------8--8-8-8-8------|--6--6-6-6-6------4--4-4-4-4------|
E|----------------------------------|----------------------------------|


                                   (AF)
G|----------------------------------|----------------------------------|
D|-------------8-9-------------7-8--|-------------5-6-------------3-4--|
A|--9--9-9-9-9------8--8-8-8-8------|--6--6-6-6-6------4--4-4-4-4------|
E|----------------------------------|----------------------------------|


                                   (AG)
G|----------------------------------|----------------------------------|
D|-------------8-9-------------7-8--|-------------5-6-------------3-4--|
A|--9--9-9-9-9------8--8-8-8-8------|--6--6-6-6-6------4--4-4-4-4------|
E|----------------------------------|----------------------------------|


                                   (AH)
G|----------------------------------|----------------------------------|
D|------------1-2-------------------|----------------------------------|
A|--2--2-2-2-------------------5-6--|-------------3-4------------------|
E|------------------6--6-6-6-6------|--4--4-4-4-4------2*--------------|





Comments


Popular Vapors tabs & chords
America Bass Tabs
Civic Hall Bass Tabs
Civic Hall 1 Bass Tabs
Daylight Titans Bass Tabs
Isolated Case Bass Tabs
Letter From Hiro Bass Tabs
Magnets Bass Tabs
Turning Japanese 1 Bass Tabs
Trains Chords
Trains Ukulele


Song lyrics



↑ Back to top | Tablatures and chords are parodies/interpretations of the original songs. You may use it for private study, scholarship, research or language learning purposes only
© 2014 AZChords.com Contact us | Privacy policy | DMCA | Add/correct tabs | Request tabs | Top 50 tabs