» » »

Letter From Hiro Bass tabs (ver.1)

Artists:  A B C D E F G H I J K L M N O P Q R S T U V W X Y Z # 

Letter From Hiro Bass tabs (ver.1)

Vapors
Rating:
0/5 (0 votes)

Tabs too difficult? Try these video lessons and learn fast.
                file. If you feel that the content of this file may be violating   
copyright law, you may not use the information displayed here in any way.    
##----------------------------------------------------------------------##

 Letter From Hiro
 BASSIST: Steve Smith

 
                                   (A)
G|----------------------------------|----------------------------------|
D|----------------------------------|----------------------------0-----|
A|----------------------------------|----------------------0--2-----2--|
E|----------------------------------|----------------------------------|



                                   (B)
G|----------------------------------|------------------4-4-2-2-0-0-----|
D|----------------------------------|------------------------------4---|
A|-5-5-5-5-5-5-5-5-5-5-5-5-5-5-5-5-5-5-5-5-5-5-5-5-5-------------------|
E|----------------------------------|----------------------------------|



                                   (C)
G|----------------------------------|-------------------------2--------|
D|----------------------------0-----|----------------------4-----4--2--|
A|---5--5-5-5-----5--5-5--0-2---2---|-5--5-5-5-----5--5-5--------------|
E|------------5-7-------------------|----------5-7---------------------|


                                   (D)
G|----------------------0----------|----------------------------------|
D|------------------------4--2--0--|----------------------0--2--0-----|
A|-2--2-2-2---0--2--2-2------------|-2--2-2-2---0--2--2-2----------2--|
E|----------2----------------------|----------2-----------------------|



                                   (E)
G|----------------------------------|----------------------------------|
D|----------------------0--2--0-----|----------------------------0-----|
A|-------------------------------2--|----------------------0--2-----2--|
E|-3--3-3-3-1-2--3--3-3-------------|-3--3-3-3-1-2--3--3-3-------------|



                                   (F)
G|----------------------------------|------------------4-4-2-2-0-0-----|
D|----------------------------0-----|------------------------------4---|
A|---5--5-5-5-----5--5-5--0-2---2---|-5--5-5-5-----5-------------------|
E|------------5-7-------------------|----------5-7---------------------|



                                   (G)
G|----------------------------------|----------------------------------|
D|----------------------------------|----------------------------------|
A|-5------------------0-5-----------|-5-2-------------0-2--------------|
E|----------------------------------|----------------------------------|



                                   (H)
G|----------------------------------|----------------------------------|
D|----------------------------------|----------------------------2-----|
A|----------------------------------|-0-5--------5---------0--2-----2--|
E|-0-1-2-3------------3-------------|----------------------------------|


                                   (I)
G|----------------------------------|----------------------------------|
D|----------------------------------|----------------------------------|
A|-5--------------------------------|-5---------------------------12\--|
E|----------------------------------|----------------------------------|


                                   (J)
G|----------------------------------|----------------------------------|
D|----------------------------------|-----------------------0--2--0----|
A|-2-2-1-1-2-2-1-1-2-2-1-1-2-2-1-1-2-2-1-1-2-2-1-1-2-2-1-1----------2--|
E|----------------------------------|----------------------------------|


                                   (K)
G|----------------------------------|----------------------------------|
D|----------------------0--2--0-----|----------------------------0-----|
A|-------------------------------2--|----------------------0--2-----2--|
E|-3--3-3-3-1-2--3--3-3-------------|-3--3-3-3-1-2--3--3-3-------------|


                                   (L)
G|----------------------------------|----------------------------------|
D|----------------------------0-----|-----------------------4-5--------|
A|---5--5-5-5-----5--5-5--0-2---2---|-5--5-5-5-----5--5-5--------------|
E|------------5-7-------------------|----------5-7--------------3-4-5--|


                                   (M)
G|----------------------------------|----------------------------------|
D|-7-7--5-5-----------7-7--5-5------|-----5-5--3-3--------5-5--4-4-----|
A|----------5-5----------------7-7--|--------------5-5-------------5-4-|
E|--------------5-5-----------------|-3-3--------------3-3-------------|
			

                                   (N)
G|----------------------------------|------------------4-4-2-2-0-0-----|
D|----------------------------0-----|------------------------------4---|
A|---5--5-5-5-----5--5-5--0-2---2---|-5--5-5-5-----5-------------------|
E|------------5-7-------------------|----------5-7---------------------|

Reeat C To E

                                   (O)
G|----------------------------------|----------------------------------|
D|----------------------------0-----|-----------------------4-5--------|
A|---5--5-5-5-----5--5-5--0-2---2---|-5--5-5-5-----5--5-5--------------|
E|------------5-7-------------------|----------5-7--------------3-4-5--|


                                   (P)
G|----------------------------------|----------------------------------|
D|-7-7--5-5-----------7-7--5-5------|-----5-5--3-3--------5-5--4-4-----|
A|----------5-5----------------7-7--|--------------5-5-------------5-4-|
E|--------------5-5-----------------|-3-3--------------3-3-------------|
			

                                   (Q)
G|----------------------------------|------------------4-4-2-2-0-0-----|
D|----------------------------0-----|------------------------------4---|
A|---5--5-5-5-----5--5-5--0-2---2---|-5--5-5-5-----5-------------------|
E|------------5-7-------------------|----------5-7---------------------|


                                   (R)
G|----------------------------------|-------------------------2--------|
D|----------------------------0-----|----------------------4-----4--2--|
A|---5--5-5-5-----5--5-5--0-2---2---|-5--5-5-5-----5--5-5--------------|
E|------------5-7-------------------|----------5-7---------------------|


                                   (S)
G|----------------------------------|----------------------------------|
D|----------------------------------|-----------------------0--2--0----|
A|-2-2-1-1-2-2-1-1-2-2-1-1-2-2-1-1-2-2-1-1-2-2-1-1-2-2-1-1----------2--|
E|----------------------------------|----------------------------------|


                                   (T)
G|----------------------------------|----------------------------------|
D|----------------------0--2--0-----|----------------------------0-----|
A|-------------------------------2--|----------------------0--2-----2--|
E|-3--3-3-3-1-2--3--3-3-------------|-3--3-3-3-1-2--3--3-3-------------|


                                   (U)
G|----------------------------------|------------------4-4-2-2-0-0-----|
D|----------------------------0-----|------------------------------4---|
A|---5--5-5-5-----5--5-5--0-2---2---|-5--5-5-5-----5-------------------|
E|------------5-7-------------------|----------5-7---------------------|

Repeat C To E
                                   (V)
G|----------------------------------|----------------------------------|
D|----------------------------------|------------------------4-5-------|
A|----5--5-5-5-----5-------5--------|---5--5-5-5-----5--5-5------------|
E|-------------5-7-----5-7---5-7----|------------5-7-------------3-4-5-|


                                   (W)
G|----------------------------------|----------------------------------|
D|-7-7--5-5-----------7-7--5-5------|-----5-5--3-3--------5-5--4-4-----|
A|----------5-5----------------7-7--|--------------5-5-------------5-4-|
E|--------------5-5-----------------|-3-3--------------3-3-------------|


                                   (X)
G|----------------------------------|----------------------------------|
D|----------------------------0-----|-----------------------4-5--------|
A|---5--5-5-5-----5--5-5--0-2---2---|-5--5-5-5-----5--5-5--------------|
E|------------5-7-------------------|----------5-7--------------3-4-5--|


                                   (Y)
G|----------------------------------|-------------------------------4--|
D|-7-7--5-5-----------7-7--5-5------|--------------------------5-4-----|
A|----------5-5----------------7-7--|----------------------------------|
E|--------------5-5-----------------|-3--------------------------------|


                                   (Z)
G|--4---2---------------------------|----------------------------------|
D|----------4---2---0---------------|-------------2---0----------------|
A|----------------------2-----------|---------------------4---0---2----|
E|--------------------------3---5---|-5---5---5------------------------|


                                   (AA)
G|--4---2---------------------------|----------------------------------|
D|----------4---2---0---------------|-------------2---0----------------|
A|----------------------2-----------|---------------------4---0---2----|
E|--------------------------3---5---|-5---5---5------------------------|


                                   (AB)
G|--4---2---------------------------|----------------------------------|
D|----------4---2---0---------------|-------------2---0----------------|
A|----------------------2-----------|---------------------4---0---2----|
E|--------------------------3---5---|-5---5---5------------------------|


                                   (AC)
G|--4---2---------------------------|----------------------------------|
D|----------4---2---0---------------|-------------2---0----------------|
A|----------------------2-----------|---------------------4---0--------|
E|--------------------------3---5---|-5---5---5------------------------|


                                   (AD)
G|------------7-----7---------------|------------7-----7---------------|
D|-----7/--9------9---9-7--9-7------|-----7/--9------9---9-7--9-7------|
A|--5--------------------------9-7--|--5--------------------------9-7--|
E|----------------------------------|----------------------------------|


                                   (AE)
G|------------7-----7---------------|------------7-----7---------------|
D|-----7/--9------9---9-7--9-7------|-----7/--9------9---9-7--9-7------|
A|--5--------------------------9-7--|--5--------------------------9-7--|
E|----------------------------------|----------------------------------|


                                   (AF)
G|------------7-----7---------------|------------7-----7---------------|
D|-----7/--9------9---9-7--9-7------|-----7/--9------9---9-7--9-7------|
A|--5--------------------------9-7--|--5--------------------------9-7--|
E|----------------------------------|----------------------------------|


                                   (AG)
G|------------7-----7---------------|------------7-----7---------------|
D|-----7/--9------9---9-7--9-7------|-----7/--9------9---9-7--9-7------|
A|--5--------------------------9-7--|--5--------------------------9-7--|
E|----------------------------------|----------------------------------|


                                   (AH)
G|------------7-----7---------------|------------7-----7---------------|
D|-----7/--9------9---9-7--9-7------|-----7/--9------9---9-7--9-7------|
A|--5--------------------------9-7--|--5--------------------------9-7--|
E|----------------------------------|----------------------------------|


                                   (AI)
G|------------7-----7---------------|------------7-----7---------------|
D|-----7/--9------9---9-7--9-7------|-----7/--9------9---9-7--9-7------|
A|--5--------------------------9-7--|--5--------------------------9-7--|
E|----------------------------------|----------------------------------|


                                   (AJ)
G|----------------------------------|-------------------------2--------|
D|----------------------------0-----|----------------------4-----4--2--|
A|---5--5-5-5-----5--5-5--0-2---2---|-5--5-5-5-----5--5-5--------------|
E|------------5-7-------------------|----------5-7---------------------|


                                   (AK)
G|----------------------0----------|----------------------------------|
D|------------------------4--2--0--|----------------------0--2--0-----|
A|-2--2-2-2---0--2--2-2------------|-2--2-2-2---0--2--2-2----------2--|
E|----------2----------------------|----------2-----------------------|



                                   (AL)
G|----------------------------------|----------------------------------|
D|----------------------0--2--0-----|----------------------------0-----|
A|-------------------------------2--|----------------------0--2-----2--|
E|-3--3-3-3-1-2--3--3-3-------------|-3--3-3-3-1-2--3--3-3-------------|


                                   (AM)
G|----------------------------------|------------------4-4-2-2-0-0-----|
D|----------------------------0-----|------------------------------4---|
A|---5--5-5-5-----5--5-5--0-2---2---|-5--5-5-5-----5-------------------|
E|------------5-7-------------------|----------5-7---------------------|

Repeat AJ To AM Until The Song Fades Out
            
Tabs too difficult? Try these video lessons and learn fast.


comments powered by Disqus
↑ Back to top | Tablatures and chords are parodies/interpretations of the original songs. You may use it for private study, scholarship, research or language learning purposes only