» » »

I Think Im Turning Japanese Tabs (ver.1)

Artists:  A B C D E F G H I J K L M N O P Q R S T U V W X Y Z # 

I Think Im Turning Japanese Tabs (ver.1)

Vapors
Rating:
0/5 (0 votes)

Hard to play? Try these video lessons and learn fast.
                (Intro)
ok, this is a cool little japanese riff
and its the beginning of the song, I think
im turning japanese.

here it goes.



e------------------------1/5-5-5-5-3--3--0--0--3
b-5-5-5-5-3--3--0--0--3--1/5-5-5-5-3--3--0--0--3
g-----------------------------------------------
d-----------------------------------------------
a-----------------------------------------------
e-----------------------------------------------

here's another way to do it.
using power chords this time.

e-----------------------------------------------
b-----------------------------------------------
g-----------------------------------------------
d------------------------3/7-7-7-7-5--5--2--2--5
a------------------------3/7-7-7-7-5--5--2--2--5
e-5-5-5-5-3--3--0--0--3--1/5-5-5-5-3--3--0--0--3

2day was fun
Play your new song
Aint it easy
Craziness!

Lovely song
Its great
Very good
Easy
So read this vertically!
            
Hard to play? Try these video lessons and learn fast. | Correct




comments powered by Disqus
↑ Back to top | Tablatures and chords are parodies/interpretations of the original songs. You may use it for private study, scholarship, research or language learning purposes only