>
 >
Daylight Titans

Daylight Titans Bass Tabs

Vapors - Daylight Titans chords, tabs, tablatures, lyrics

Guitar lessons | Add/correct | Request | Top 50 tabs Artists:  A B C D E F G H I J K L M N O P Q R S T U V W X Y Z 0-9

Daylight Titans Bass Tabs – Vapors

CD, Sheet music, Poster

Do you like Daylight Titans? Share with your friends now
Bass Tabs
file. If you feel that the content of this file may be violating   
copyright law, you may not use the information displayed here in any way.#
#----------------------------------------------------------------------##

 Daylight Titans
 BASSIST: Steve Smith

 
                                   (A)
G|----------------------------------|----------------------------------|
D|----------------------------------|----------------------------------|
A|----------------------------------|----------------------------------|
E|----------------------------------|----------------------------------|

                                   (B)
G|----------------------------------|----------------------------------|
D|----------------------------------|----------------------------------|
A|----------------------------------|----------------------------------|
E|-5-5-5-5-5-5-5-3-0-0-0-0-0-0-0-3--|-5-5-5-5-5-5-5-3-0-0-0-0-0-0-0-3--|

 Verse                             (C)
G|----------------------------------|----------------------------------|
D|-----7--------------5----5-6-7----|-----7--------------5----5-6-7-7--|
A|----------7-8-7--7----7-----------|----------7-8-7--7----7-----------|
E|-5-5---5--------------------------|-5-5---5--------------------------|


                                   (D)
G|-----7----------------------------|-----7----------------------------|
D|--------------------5----5-6-7----|--------------------5----5-6-7-7--|
A|-5-5---5--7-8-7--7----7-----------|-5-5---5--7-8-7--7----7-----------|
E|----------------------------------|----------------------------------|


                                   (E)
G|----------------------------------|----------------------------------|
D|-----7--------------5----5-6-7----|-----7--------------5----5-6-7-7--|
A|----------7-8-7--7----7-----------|----------7-8-7--7----7-----------|
E|-5-5---5--------------------------|-5-5---5--------------------------|


                                   (F)
G|-----7----------------------------|-----7----------------------------|
D|--------------------5----5-6-7-7--|--------------------5----5-6-7-7--|
A|-5-5---5--7-8-7--7----7-----------|-5-5---5--7-8-7--7----7-----------|
E|----------------------------------|----------------------------------|


                                   (G)
G|----------------------------------|----------------------------------|
D|------------------7-----7--8--10--|------------------7-----7--8--10--|
A|----7-7--5-7-8--8---8-------------|----7-7--5-7-8--8---8-------------|
E|-5--------------------------------|-5--------------------------------|


                                   (H)
G|----------------------------------|
D|------------------7-----7--8--10--|
A|----7-7--5-7-8--8---8-------------|
E|-5--------------------------------|


                                   (I)
G|----------------------------------|----------------------------------|
D|------7--10--7--------------------|----------------------------------|
A|--10------------10--7--10--7------|------7--10--7------7--8----------|
E|----------------------------------|--10------------10----------------|


                                   (J)
G|----------------------------------|----------------------------------|
D|-----7--------------5----5-6-7----|-----7--------------5----5-6-7-7--|
A|----------7-8-7--7----7-----------|----------7-8-7--7----7-----------|
E|-5-5---5--------------------------|-5-5---5--------------------------|


                                   (K)
G|-----7----------------------------|-----7----------------------------|
D|--------------------5----5-6-7-7--|--------------------5----5-6-7-7--|
A|-5-5---5--7-8-7--7----7-----------|-5-5---5--7-8-7--7----7-----------|
E|----------------------------------|----------------------------------|


                                   (L)
G|----------------------------------|----------------------------------|
D|-----7--------------5----5-6-7----|-----7--------------5----5-6-7-7--|
A|----------7-8-7--7----7-----------|----------7-8-7--7----7-----------|
E|-5-5---5--------------------------|-5-5---5--------------------------|


                                   (M)
G|-----7----------------------------|-----7----------------------------|
D|--------------------5----5-6-7-7--|--------------------5----5-6-7-7--|
A|-5-5---5--7-8-7--7----7-----------|-5-5---5--7-8-7--7----7-----------|
E|----------------------------------|----------------------------------|
			

                                   (N)
G|----------------------------------|----------------------------------|
D|------------------7-----7--8--10--|------------------7-----7--8--10--|
A|----7-7--5-7-8--8---8-------------|----7-7--5-7-8--8---8-------------|
E|-5--------------------------------|-5--------------------------------|


                                   (O)
G|----------------------------------|
D|------------------7-----7--8--10--|
A|----7-7--5-7-8--8---8-------------|
E|-5--------------------------------|


                                   (P)
G|----------------------------------|----------------------------------|
D|------7--10--7--------------------|----------------------------------|
A|--10------------10--7--10--7------|------7--10--7------7--8----------|
E|----------------------------------|--10------------10----------------|


                                   (Q)
G|----------------------------------|----------------------------------|
D|----------------------------------|----------------------------------|
A|--3-3-3-3-3-3-3-3-3---------------|----------------------------------|
E|--------------------5-5-5-5-3-3-3-|-3-1-1-1-1-3-3-3-3-1-1-1-1-3-3-3-3|

                                   (R)
G|----------------------------------|----------------------------------|
D|----------------------------------|----------------------------------|
A|--3-3-3-3-3-3-3-3-3---------------|----------------------------------|
E|--------------------5-5-5-5-3-3-3-|-3-1-1-1-1-1-1-1-1-1-1-1-1-1-3----|


                                   (S)
G|----------------------------------|----------------------------------|
D|----------------------------------|----------------------------------|
A|----------------------------------|----------------------------------|
E|-5-5-5-5-5-5-5-3-0-0-0-0-0-0-0-3--|-5-5-5-5-5-5-5-3-0-0-0-0-0-0-0-3--|


                                   (T)
G|----------------------------------|----------------------------------|
D|----------------------------------|----------------------------------|
A|----------------------------------|----------------------------------|
E|-5-5-5-5-5-5-5-3-0-0-0-0-0-0-0-3--|-5-5-5-5-5-5-5-3-0-0-0-0-0-0-0-3--|


                                   (U)
G|----------------------------------|----------------------------------|
D|----------------------------------|----------------------------------|
A|----------------------------------|----------------------------------|
E|-5-5-5-5-5-5-5-3-0-0-0-0-0-0-0-3--|-5-5-5-5-5-5-5-3-0-0-0-0-0-0-0-3--|


                                   (V)
G|----------------------------------|----------------------------------|
D|-----7--------------5----5-6-7----|-----7--------------5----5-6-7-7--|
A|----------7-8-7--7----7-----------|----------7-8-7--7----7-----------|
E|-5-5---5--------------------------|-5-5---5--------------------------|


                                   (W)
G|-----7----------------------------|-----7----------------------------|
D|--------------------5----5-6-7-7--|--------------------5----5-6-7-7--|
A|-5-5---5--7-8-7--7----7-----------|-5-5---5--7-8-7--7----7-----------|
E|----------------------------------|----------------------------------|


                                   (X)
G|----------------------------------|----------------------------------|
D|-----7--------------5----5-6-7----|-----7--------------5----5-6-7-7--|
A|----------7-8-7--7----7-----------|----------7-8-7--7----7-----------|
E|-5-5---5--------------------------|-5-5---5--------------------------|


                                   (Y)
G|-----7----------------------------|-----7----------------------------|
D|--------------------5----5-6-7-7--|--------------------5----5-6-7-7--|
A|-5-5---5--7-8-7--7----7-----------|-5-5---5--7-8-7--7----7-----------|
E|----------------------------------|----------------------------------|


                                   (Z)
G|----------------------------------|----------------------------------|
D|------------------7-----7--8--10--|------------------7-----7--8--10--|
A|----7-7--5-7-8--8---8-------------|----7-7--5-7-8--8---8-------------|
E|-5--------------------------------|-5--------------------------------|


                                   (AA)
G|----------------------------------|
D|------------------7-----7--8--10--|
A|----7-7--5-7-8--8---8-------------|
E|-5--------------------------------|


                                   (AB)
G|----------------------------------|----------------------------------|
D|------7--10--7--------------------|----------------------------------|
A|--10------------10--7--10--7------|------7--10--7------7--8----------|
E|----------------------------------|--10------------10----------------|


                                   (AC)
G|----------------------------------|----------------------------------|
D|------------------7-----7--8--10--|------------------7-----7--8--10--|
A|----7-7--5-7-8--8---8-------------|----7-7--5-7-8--8---8-------------|
E|-5--------------------------------|-5--------------------------------|


                                   (AD)
G|----------------------------------|
D|------------------7-----7--8--10--|
A|----7-7--5-7-8--8---8-------------|
E|-5--------------------------------|


                                   (AE)
G|----------------------------------|----------------------------------|
D|------7--10--7--------------------|----------------------------------|
A|--10------------10--7--10--7------|------7--10--7------7-------------|
E|----------------------------------|--10------------10----------------|


                                   (AF)
G|----------------------------------|----------------------------------|
D|----------------------------------|----------------------------------|
A|----------------------------------|----------------------------------|
E|-5-5-5-5-5-5-5-3-0-0-0-0-0-0-0-3--|-5-5-5-5-5-5-5-3-0-0-0-0-0-0-0-3--|


                                   (AG)
G|----------------------------------|----------------------------------|
D|----------------------------------|----------------------------------|
A|----------------------------------|----------------------------------|
E|-5-5-5-5-5-5-5-3-0-0-0-0-0-0-0-3--|-5-5-5-5-5-5-5-3-0*---------------|





Comments


Popular Vapors tabs & chords
Bunkers Bass Tabs
Civic Hall 1 Bass Tabs
Jimmie Jones Bass Tabs
Spring Collection Bass Tabs
Turning Japanese Drum Tabs
I Think Im Turning Japanese Intro Tabs
Turning Japanese Tabs
Turning Japanese 2 Tabs
Trains Ukulele
Turning Japanese Ukulele


Song lyrics



↑ Back to top | Tablatures and chords are parodies/interpretations of the original songs. You may use it for private study, scholarship, research or language learning purposes only
© 2014 AZChords.com Contact us | Privacy policy | DMCA | Add/correct tabs | Request tabs | Top 50 tabs