» » »

Civic Hall Bass tabs (ver.2)

Artists:  A B C D E F G H I J K L M N O P Q R S T U V W X Y Z # 

Civic Hall Bass tabs (ver.2)

Vapors
Rating:
0/5 (0 votes)

Hard to play? Try these video lessons and learn fast.
                file. If you feel that the content of this file may be violating
copyright law, you may not use the information displayed here in any way.
##----------------------------------------------------------------------##

 Civic Hall
 BASSIST: Steve Smith


                                   (A)
G|----------------------------------|----------------------------------|
D|--4---2-----------4---2-----------|--4---2-----------4---2-----------|
A|----------5---4-----------5---4---|----------5---4-----------5---4---|
E|----------------------------------|----------------------------------|


                                   (B)
G|----------------------------------|----------------------------------|
D|--4---2-----------4---2-----------|-----4--2-----2-------4--2-----2--|
A|----------5---4-----------5---4---|--0--------4-------0--------4-----|
E|----------------------------------|----------------------------------|


                                   (C)
G|----------------------------------|----------------------------------|
D|--4---2-----------4---2-----------|-----4--2-----2-------4--2-----2--|
A|----------5---4-----------5---4---|--0-------4--------0--------4-----|
E|----------------------------------|----------------------------------|


                                   (D)
G|----------------------------------|--------2-----2----------2-----2--|
D|----------------------------------|--0--4-----4-------0--4-----4-----|
A|-----4--2-----2-------4--2-----2--|----------------------------------|
E|--0--------4-------0--------4-----|----------------------------------|


                                   (E)
G|----------------------------------|----------------------------------|
D|--4---2--------------4--2-----2---|-----4--2-----2-------------------|
A|----------5---4---0--------4------|--0--------4---------4---2--------|
E|----------------------------------|------------------0----------0--4-|


                                   (F)
G|----------------------------------|----------------------------------|
D|----------------------------------|----------------------------------|
A|----4---------------4-------------|----4---------------4-------4--5--|
E|--5---5-7-5-2-0---5---5--7--0--4--|--5---5-7-5-2-0---5---5--7--------|


                                   (G)
G|----------------------------------|----------------------------------|
D|------6-9--9-6---------4-7--7-4---|------6-9--9-6---------7----------|
A|----7----------6-----5----------4-|----7----------6----5-----5---7---|
E|--9----------------7--------------|--9-------------------------------|


                                   (H)
G|----------------------------------|----------------------------------|
D|--4---2--------------4--2-----2---|-----4--2-----2-------------------|
A|----------5---4---0--------4------|--0--------4---------4---2------2-|
E|----------------------------------|------------------0----------4----|


                                   (I)
G|----------------------------------|----------------------------------|
D|--4---2-----------4---2-----------|--4---2-----------4---2-----------|
A|----------5---4-----------5---4---|----------5---4-----------5---4---|
E|----------------------------------|----------------------------------|


                                   (J)
G|----------------------------------|----------------------------------|
D|--4---2-----------4---2-----------|--4---2-----------4---2-----------|
A|----------5---4-----------5---4---|----------5---4-----------5---4---|
E|----------------------------------|----------------------------------|


                                   (K)
G|----------------------------------|----------------------------------|
D|--4---2-----------4---2-----------|-----4--2-----2-------4--2-----2--|
A|----------5---4-----------5---4---|--0-------4--------0--------4-----|
E|----------------------------------|----------------------------------|


                                   (L)
G|----------------------------------|--------2-----2----------2-----2--|
D|----------------------------------|--0--4-----4-------0--4-----4-----|
A|-----4--2-----2-------4--2-----2--|----------------------------------|
E|--0--------4-------0--------4-----|----------------------------------|


                                   (M)
G|----------------------------------|----------------------------------|
D|--4---2--------------4--2-----2---|-----4--2-----2-------------------|
A|----------5---4---0--------4------|--0--------4---------4---2--------|
E|----------------------------------|------------------0----------0--4-|


                                   (N)
G|----------------------------------|----------------------------------|
D|----------------------------------|----------------------------------|
A|----4---------------4-------------|----4---------------4-------4--5--|
E|--5---5-7-5-2-0---5---5--7--0--4--|--5---5-7-5-2-0---5---5--7--------|


                                   (O)
G|----------------------------------|----------------------------------|
D|------6-9--9-6---------4-7--7-4---|------6-9--9-6---------7----------|
A|----7----------6-----5----------4-|----7----------6----5-----5---7---|
E|--9----------------7--------------|--9-------------------------------|


                                   (P)
G|----------------------------------|----------------------------------|
D|--4---2--------------4--2-----2---|-----4--2-----2-------------------|
A|----------5---4---0--------4------|--0--------4---------4---2------2-|
E|----------------------------------|------------------0----------4----|


                                   (Q)
G|----------------------------------|------------------------------------|
D|--4---2-----------4---2-----------|--4---2-----------4---2-------------|
A|----------5---4-----------5---4---|----------5---4-----------5---------|
E|----------------------------------|-----------------------------0--4---|
                     |--------------Play Slower--------------------------|

                                   (R)
G|----------------------------------|----------------------------------|
D|----------------------------------|----------------------------------|
A|----4---------------4-------------|----4---------------4-------4--5--|
E|--5---5-7-5-2-0---5---5--7--0--4--|--5---5-7-5-2-0---5---5--7--------|


                                   (S)
G|----------------------------------|----------------------------------|
D|------6-9--9-6---------4-7--7-4---|------6-9--9-6--------7-----------|
A|----7----------6-----5----------4-|----7----------6---5----5--7------|
E|--9----------------7--------------|--9--------------------------0--4-|


                                   (T)
G|----------------------------------|----------------------------------|
D|----------------------------------|----------------------------------|
A|----4---------------4-------------|----4---------------4-------4--5--|
E|--5---5-7-5-2-0---5---5--7--0--4--|--5---5-7-5-2-0---5---5--7--------|


                                   (U)
G|----------------------------------|----------------------------------|
D|------6-9--9-6---------4-7--7-4---|------6-9--9-6---------7----------|
A|----7----------6-----5----------4-|----7----------6----5-----5---7---|
E|--9----------------7--------------|--9-------------------------------|


                                   (V)
G|----------------------------------|----------------------------------|
D|--4---2--------------4--2-----2---|-----4--2-----2-------------------|
A|----------5---4---0--------4------|--0--------4---------4---2------2-|
E|----------------------------------|------------------0----------4----|

                                   (W)
G|----------------------------------|------------------------------------|
D|--4---2-----------4---2-----------|--4---2-----------------------------|
A|----------5---4-----------5---4---|----------5---4/----9*--------------|
E|----------------------------------|------------------------------------|
                     |---------Play Slower---------|
            
Hard to play? Try these video lessons and learn fast. | Correct




comments powered by Disqus
↑ Back to top | Tablatures and chords are parodies/interpretations of the original songs. You may use it for private study, scholarship, research or language learning purposes only