» » »

Vapors, Bunkers Bass tabs (ver.1)

Artists:  A B C D E F G H I J K L M N O P Q R S T U V W X Y Z # 

Bunkers Bass tabs (ver.1)

Vapors Tabs
 Rating:
4/5 (4 votes)
Bunkers lessons Tabs too difficult? Try these video lessons and learn fast
1
                file. If you feel that the content of this file may be violating   
copyright law, you may not use the information displayed here in any way.    
##----------------------------------------------------------------------##

 Bunkers
 BASSIST: Steve Smith

 Pay very close attention to the picking in this song. I have tried to
 tab it out as best as i could.
                                   (A)
G|----------------------------------|----------------------------------|
D|-9---------5-------------7--7/----|-9---------5-------------7--7/----|
A|-7---------3-------------5--5/----|-7---------3-------------5--5/----|
E|----------------------------------|----------------------------------|


                                   (B)
G|----------------------------------|----------------------------------|
D|-9---------5-------------7--7/----|-9---------5--------10-10-10-8----|
A|-7---------3-------------5--5/----|-7---------3-------------------10-|
E|----------------------------------|----------------------------------|


                                   (C)
G|----------------------------------|----------------------------------|
D|----------------------------------|----------------------------------|
A|-7--7--7--0--7--7---7--0--7--5----|-3--3--3--0--3--3---3--0--3--5----|
E|----------------------------------|----------------------------------|


                                   (D)
G|----------------------------------|----------------------------------|
D|----------------------------------|----------------------------------|
A|-7--7--7--0--7--7---7--0--7--5----|-3--3--3--0--3--3---3--0--3--5----|
E|----------------------------------|----------------------------------|


                                   (E)
G|----------------------------------|----------------------------------|
D|----------------------------------|----------------------------------|
A|-7--7--7--0--7--7---7--0--7--5----|-3--3--3--0--3--3---3--0--3--5----|
E|----------------------------------|----------------------------------|


                                   (F)
G|----------------------------------|----------------------------------|
D|----------------------------------|----------------------------------|
A|-7--7--7--0--7--7---7--0--7--5----|-3--3--3--0--3--3---3--0--3--5----|
E|----------------------------------|----------------------------------|


                                   (G)
G|----------------------------------|----------------------------------|
D|----------------------------------|----------------------------------|
A|-7--7--7--0--7--7---7--0--7--5----|-3--3--3--0--3--3---3--0--3--5----|
E|----------------------------------|----------------------------------|


                                   (H)
G|----------------------------------|----------------------------------|
D|----------------------------------|----------------------------------|
A|-7--7--7--0--7--7---7--0--7--5----|-3--3--3--0--3--3--3--0--3-3-5-5--|
E|----------------------------------|----------------------------------|


                                   (I)
G|----------------------------------|----------------------------------|
D|----------------------------------|----------------------------------|
A|----7--7--0--7--7---7--0--7--5----|-3--3--3--0--3--3--3--0--3-3-5-5--|
E|-0--------------------------------|----------------------------------|


                                   (J)
G|----------------------------------|----------------------------------|
D|----------------------------------|----------------------------------|
A|----7--7--0--7--7---7--0--7--5----|-3--3--3--0--3--3--3--0--3-3-5-5--|
E|-0--------------------------------|----------------------------------|


                                   (K)
G|----------------------------------|----------------------------------|
D|----------------------------------|----------------------------------|
A|----7--7--0--7--7---7--0--7--5----|-3--3--3--0--3--3--3--0--3-3-5-5--|
E|-0--------------------------------|----------------------------------|


                                   (L)
G|----------------------------------|----------------------------------|
D|----------------------------------|----------------------------------|
A|----7--7--0--7--7---7--0--7--5----|-3--3--3--3--0--3--3--------------|
E|-0--------------------------------|------------------------0--1--2---|


                                   (M)
G|----------------------------------|----------------------------------|
D|----------------------------------|----------------------------------|
A|-----------2--3--4--5-5-5-5-5-----|--0--1--2--3--3--3--3--3--3--3--3-|
E|-3-3-3-3-3------------------------|----------------------------------|
			

                                   (N)
G|----------------------------------|
D|-----------0----------------------|
A|-----2--4----4--2--0--------------|
E|--0------------------3--2--0------|


                                   (O)
G|----------------------------------|----------------------------------|
D|----------------------------------|----------------------------------|
A|-----------2--3--4--5-5-5--5-0-5-5|-5--0---3-3-3--3-0-3-3-3-3--------|
E|-3-3-3-3-3------------------------|----------------------------------|


                                   (P)
G|----------------------------------|-----------------0--2--4--5--4----|
D|-----------0----------------------|--------0--2--4-------------------|
A|-----2--4----4--2--0--------------|--3--3----------------------------|
E|--0------------------3--2--0------|----------------------------------|


                                   (Q)
G|----------------------------------|-----------------0--2--4--5--4----|
D|-----------0----------------------|--------0--2--4-------------------|
A|-----2--4----4--2--0--------------|--3--3----------------------------|
E|--0------------------3--2--0------|----------------------------------|

Repeat C To Q-------------------
                                   (R)
G|----------------------------------|----------------------------------|
D|-9---------5-------------7--7/----|-9---------5--------10-10-10-8----|
A|-7---------3-------------5--5/----|-7---------3-------------------10-|
E|----------------------------------|----------------------------------|


                                   (S)
G|----------------------------------|----------------------------------|
D|-9---------5-------------7--7/----|-9---------5----------------------|
A|-7---------3-------------5--5/----|-7---------3--------3-3-3-3-5-5---|
E|----------------------------------|----------------------------------|

Repeat C To Q Again

                                   (T)
G|----------------------------------|----------------------------------|
D|-9---------5-------------7--7/----|-9---------5-------------7--7/----|
A|-7---------3-------------5--5/----|-7---------3-------------5--5/----|
E|----------------------------------|----------------------------------|


                                   (U)
G|----------------------------------|----------------------------------|
D|----------------------------------|----------------------------------|
A|--7*------------------------------|----------------------------------|
E|--0*------------------------------|----------------------------------|
            
Submit corrections

comments powered by Disqus
↑ Back to top | Vapors Bass for Bunkers. Lyrics for acoustic guitar and electric guitar. 1 Tablatures and chords are parodies/interpretations of the original songs. You may use it for private study, scholarship, research or language learning purposes only