>
 >
America

America Bass Tabs

Vapors - America chords, tabs, tablatures, lyrics

Guitar lessons | Add/correct | Request | Top 50 tabs Artists:  A B C D E F G H I J K L M N O P Q R S T U V W X Y Z 0-9

America Bass Tabs – Vapors

CD, Sheet music, Poster

Do you like America? Share with your friends now
Bass Tabs
file. If you feel that the content of this file may be violating   
copyright law, you may not use the information displayed here in any way.               
##----------------------------------------------------------------------##

 America
 BASSIST: Steve Smith

 
                                   (A)
G|----------------------------------|----------------------------------|
D|----------------------------------|----------------------------------|
A|-----------------------6--7-------|-----------------------6--7-------|
E|-----------------------------5----|----------------------------5-----|


                                   (B)
G|----------------------------------|----------------------------------|
D|----------------------------------|----------------------------------|
A|-----------------------6--7-------|----------------------------------|
E|-----------------------------5----|---------------------------0-2-3--|


                                   (C)
G|----------------------------------|----------------------------------|
D|----------------------------------|----------------------------------|
A|------------------5--5--5--5-5-5--|------------------7--7--7--7-7-7--|
E|--5--5--5--5-5-5------------------|--3--3--3--3-3-3------------------|


                                   (D)
G|----------------------------------|----------------------------------|
D|----------------------------------|----------------------------------|
A|------------------5--5--5--5-5-5--|------------------7--7--7--7-7-7--|
E|--5--5--5--5-5-5------------------|--3--3--3--3-3-3------------------|


                                   (E)
G|----------------------------------|----------------------------------|
D|--------------------------9-7-----|--------------------------9-7-----|
A|--9-9-9-9-9-9-9-9-9-9-9-9-----9-7-|--5-5-5-5-5-5-5-5-5-5-5-5-----9-7-|
E|----------------------------------|----------------------------------|


                                   (F)
G|----------------------------------|----------------------------------|
D|--------------------------9-7-----|--------------------------9-7-----|
A|--9-9-9-9-9-9-9-9-9-9-9-9-----9-7-|--5-5-5-5-5-5-5-5-5-5-5-5-----9-7-|
E|----------------------------------|----------------------------------|


                                   (G)
G|----------------------------------|
D|----------------------------------|
A|----------------------------------|
E|--7-7-7-7-7-7-7-7-7-7-7-7-7-7-7-7-|


                                   (H)
G|----------------------------------|----------------------------------|
D|----------------------------------|----------------------------------|
A|-----------------5--5--5----------|-----------------------7--(7)-(7)-|
E|-5--5-5-5-5-5-5-----------5-------|-5--5-5-5-5-5-5--7--7-------------|


                                   (I)
G|----------------------------------|----------------------------------|
D|----------------------------------|----------------------------------|
A|-----------------5--5--5----------|----------------------------------|
E|--5--5-5-5-5-5-5-----------5------|---3---3-3-3-3-3-2---2-2-2-2-2-0--|


                                   (J)
G|------------------------------------------------------|
D|------------------------------------------------------|
A|------------------------------------------------------|
E|-0-0-0-0-0--0--0-0-0-0-0--0---0-0-0-0-0--0--0-0-0-2-3-|


                                   (K)
G|----------------------------------|----------------------------------|
D|----------------------------------|----------------------------------|
A|------------------5--5--5--5-5-5--|------------------7--7--7--7-7-7--|
E|--5--5--5--5-5-5------------------|--3--3--3--3-3-3------------------|


                                   (L)
G|----------------------------------|----------------------------------|
D|----------------------------------|----------------------------------|
A|------------------5--5--5--5-5-5--|------------------7--7--7--7-7-7--|
E|--5--5--5--5-5-5------------------|--3--3--3--3-3-3------------------|


                                   (M)
G|----------------------------------|----------------------------------|
D|--------------------------9-7-----|--------------------------9-7-----|
A|--9-9-9-9-9-9-9-9-9-9-9-9-----9-7-|--5-5-5-5-5-5-5-5-5-5-5-5-----9-7-|
E|----------------------------------|----------------------------------|


                                   (N)
G|----------------------------------|----------------------------------|
D|--------------------------9-7-----|--------------------------9-7-----|
A|--9-9-9-9-9-9-9-9-9-9-9-9-----9-7-|--5-5-5-5-5-5-5-5-5-5-5-5-----9-7-|
E|----------------------------------|----------------------------------|


                                   (0)
G|----------------------------------|
D|----------------------------------|
A|----------------------------------|
E|--7-7-7-7-7-7-7-7-7-7-7-7-7-7-7-7-|


                                   (P)
G|----------------------------------|----------------------------------|
D|----------------------------------|----------------------------------|
A|-----------------5--5--5----------|-----------------------7--(7)-(7)-|
E|-5--5-5-5-5-5-5-----------5-------|-5--5-5-5-5-5-5--7--7-------------|


                                   (Q)
G|----------------------------------|----------------------------------|
D|----------------------------------|----------------------------------|
A|-----------------5--5--5----------|----------------------------------|
E|--5--5-5-5-5-5-5-----------5------|---3---3-3-3-3-3-2---2-2-2-2-2-0--|


                                   (R)
G|------------------------------------------------------|
D|------------------------------------------------------|
A|------------------------------------------------------|
E|-0-0-0-0-0--0--0-0-0-0-0--0---0-0-0-0-0--0--0-0-0-2-3-|


                                   (S)
G|----------------------------------|----------------------------------|
D|----------------------------------|----------------------------------|
A|------------------5--5--5--5-5-5--|------------------7--7--7--7-7-7--|
E|--5--5--5--5-5-5------------------|--3--3--3--3-3-3------------------|


                                   (T)
G|----------------------------------|----------------------------------|
D|----------------------------------|----------------------------------|
A|------------------5--5--5--5-5-5--|------------------7--7--7--7-7-7--|
E|--5--5--5--5-5-5------------------|--3--3--3--3-3-3------------------|


                                   (U)
G|----------------------------------|----------------------------------|
D|--------------9-7-6---------------|--------------9-7-6---------------|
A|--9-9-9-9-9---------7-------------|--5-5-5-5-5---------7-------------|
E|----------------------------------|----------------------------------|


                                   (V)
G|----------------------------------|----------------------------------|
D|--------------9-7-6---------------|--------------9-7-6---------------|
A|--9-9-9-9-9---------7-------------|--5-5-5-5-5---------7-------------|
E|----------------------------------|----------------------------------|


                                   (W)
G|----------------------------------|
D|----------------------------------|
A|----------------------------------|
E|--7-7-7-7-7-7-7-7-7-7-7-7-7-7-7-7-|


                                   (X)
G|----------------------------------|----------------------------------|
D|----------------------------------|----------------------------------|
A|-----------------5--5--5----------|-----------------------7--(7)-(7)-|
E|-5--5-5-5-5-5-5-----------5-------|-5--5-5-5-5-5-5--7--7-------------|


                                   (Y)
G|----------------------------------|----------------------------------|
D|----------------------------------|----------------------------------|
A|-----------------5--5--5----------|----------------------------------|
E|--5--5-5-5-5-5-5-----------5------|----3---3-3-3-3-3-2---2-2-2-2-2-0-|


                                   (Y)
G|--------------------------------------------------------------------|
D|--------------------------------------------------------------------|
A|--------------------------------------------------------------------|
E|--0-0-0-0-0--0--0-0-0-0-0--0--0-0-0-0-0--0--0-0-0-0-0--0--0-0-0-0-0-|

Repeat and Fade Out





Comments


Popular Vapors tabs & chords
Civic Hall Bass Tabs
Magnets Bass Tabs
Trains Bass Tabs
Turning Japanese 3 Bass Tabs
Trains Chords
Turning Japanese Chords
I Think Im Turning Japanese Intro Tabs
Turning Japanese Tabs
Turning Japanese 1 Tabs
Trains Ukulele


Song lyrics



↑ Back to top | Tablatures and chords are parodies/interpretations of the original songs. You may use it for private study, scholarship, research or language learning purposes only
© 2014 AZChords.com Contact us | Privacy policy | DMCA | Add/correct tabs | Request tabs | Top 50 tabs