>
 >
Midnight Sensation

Midnight Sensation Guitar Tabs

Van Zant - Midnight Sensation chords, tabs, tablatures, lyrics

Guitar lessons | Add/correct | Request | Top 50 tabs Artists:  A B C D E F G H I J K L M N O P Q R S T U V W X Y Z 0-9

Midnight Sensation Guitar Tabs – Van Zant

CD, Sheet music, Poster

Do you like Midnight Sensation? Share with your friends now
Bass TabsTabs
-----------------------------------------------------------------------------
                                  
            
-----------------------------------------------------------------------------

Tuning: standard tuning

============================================================================= 

Guitar - rhthym



                                   PM    PM PM PM PM  
     H        Q    Q       Q    E  E  E  E  E  S  S   
E||---------------------|----------------------------|
B||---------------------|-------2-----3--------------|
G||----------------2----|--L----2-----2--------------|
D||----------------2----|--L-------------------------|
A||----------------0----|--L-------0-----0--0--0--0--|
E||---------------------|----------------------------|


     PM PM PM PM    PM PM          PM    PM       PM    PM  
  E  E  E  S  S  E  S  S  E  E     E  E  E  E  E  E  E  E   
--------------------------------|--------------------------|
--0--------------2--------0--2--|-----2-----2--3-----3-----|
--2--------------2--------2--2--|-----2-----2--2-----2-----|
--------------------------------|-----2--------------------|
-----0--0--0--0-----0--0--------|--0-----0--------0-----0--|
--------------------------------|--------------------------|


                              PM    PM       PM PM PM PM  
  E  E   E  E  E  E  E  E     E  E  E  E  E  E  E  S  S   
---------------------------|-----------------------------|
--5--L\--0--2--L--L--L--2--|-----2-----2--3--------------|
--4--L\--2--2--L--L--L--2--|-----2-----2--2--------------|
---------------------------|-----2-----------------------|
---------------------------|--0-----0--------0--0--0--0--|
---------------------------|-----------------------------|


     PM PM PM PM    PM PM          PM    PM       PM    PM  
  E  E  E  S  S  E  S  S  E  E     E  E  E  E  E  E  E  E   
--------------------------------|--------------------------|
--0--------------2--------0--2--|-----2-----2--3-----3-----|
--2--------------2--------2--2--|-----2-----2--2-----2-----|
--------------------------------|--------------------------|
-----0--0--0--0-----0--0--------|--0-----0--------0-----0--|
--------------------------------|--------------------------|


                               PM    PM    PM PM PM PM  
  E  E   E  Q    Q    E     E  E  E  E  E  E  E  S  S   
-------------------------|-----------------------------|
--5--L\--0--2----L----2--|--2-----2-----3--------------|
--4--L\--2--2----L----2--|--L-----2-----2--------------|
-------------------------|-----------------------------|
-------------------------|-----0-----0-----0--0--0--0--|
-------------------------|-----------------------------|


     PM PM PM PM    PM PM          PM    PM       PM    PM  
  E  E  E  S  S  E  S  S  E  E     E  E  E  E  E  E  E  E   
--------------------------------|--------------------------|
--0--------------2--------0--2--|-----2-----2--3-----3-----|
--2--------------2--------2--2--|-----2-----2--2-----2-----|
--------------------------------|--------------------------|
-----0--0--0--0-----0--0--------|--0-----0--------0-----0--|
--------------------------------|--------------------------|


                              PM    PM       PM PM PM PM  
  E  E   E  E  E  E  E  E     E  E  E  E  E  E  E  S  S   
---------------------------|-----------------------------|
--5--L\--0--2--L--L--L--2--|-----2-----2--3--------------|
--4--L\--2--2--L--L--L--2--|-----2-----2--2--------------|
---------------------------|-----------------------------|
---------------------------|--0-----0--------0--0--0--0--|
---------------------------|-----------------------------|


     PM PM PM PM    PM PM          PM    PM       PM    PM  
  E  E  E  S  S  E  S  S  E  E     E  E  E  E  E  E  E  E   
--------------------------------|--------------------------|
--0--------------2--------0--2--|-----2-----2--3-----3-----|
--2--------------2--------2--2--|-----2-----2--2-----2-----|
--------------------------------|--------------------------|
-----0--0--0--0-----0--0--------|--0-----0--------0-----0--|
--------------------------------|--------------------------|


                              PM PM PM PM PM          PM PM PM PM PM  PM PM     
  Q     E  Q    Q    E     E  E  E  E  E  E  E  E     E  E  E  E  E   E  E  E   
------------------------|--------------------------|---------------------------|
--5-----0--2----L-------|-----------2--3-----2-----|--------------0h--2-----2--|
--4\----2--2----L-------|-----2-----------2--2--2--|--1--1-----1------2-----2--|
------------------------|--------2-----------------|--------2------------2-----|
------------------------|--------------------------|---------------------------|
------------------------|--------------------------|---------------------------|


  PM PM PM PM PM PM PM PM    PM PM PM PM   PM             PM PM PM PM PM        
  E  E  E  E  E  E  E  E     E  E  E  Q    E  E  E     E  E  E  E  E  E  E  E   
--------------------------|----------------5-----5--|--------------------------|
--L--------2--3--------2--|----------------5-----5--|-----------2--3-----2-----|
--L--2-----------2--2-----|--1--1-----1----2-----2--|-----2-----------2--2--2--|
--2-----2-----------2-----|--------2----------------|--------2-----------------|
--0-----------------------|-------------------------|--------------------------|
--------------------------|-------------------------|--------------------------|


  PM PM PM PM PM  PM PM       PM PM PM PM PM PM PM PM                          
  E  E  E  E  E   E  E  E     E  E  E  E  E  E  E  E     Q    E  Q.     E  E   
---------------------------|--------------------------|----------5------------|
--------------0h--2-----2--|--L--------2--3--------2--|--5----x--5---------3--|
--1--1-----1------2-----2--|--L--2-----------2--2-----|--4----x------------2--|
--------2------------2-----|--2-----2-----------2-----|-------x------------0--|
---------------------------|--0-----------------------|-----------------------|
---------------------------|--------------------------|-----------------------|


                                                        PM    PM        
  H        Q    E  E     H        Q    E  E     Q    E  E  E  E  E  E   
----------------------|----------------------|-------------------------|
--L--------L----L--3--|--L--------L----L-----|-------2-----3-----3-----|
--L--------L----L--0--|--L--------L----L-----|-------2-----2-----2-----|
--L--------L----L--0--|--L--------L----L--2--|-------------------------|
----------------------|-------------------0--|--L-------0-----0-----0--|
-------------------3--|--L--------L----L-----|-------------------------|


  E  E  E  H        E     H        Q    E  E     H        Q    E  E   
-----------------------|----------------------|----------------------|
--0--------2--------3--|--L--------L----L--3--|--L--------L----L-----|
--2-----x--2--------2--|--L--------L----L--0--|--L--------L----L-----|
--------x-----------0--|--L--------L----L--0--|--L--------L----L-----|
--------x--------------|----------------------|----------------------|
-----------------------|-------------------3--|--L--------L----L--0--|


  E  E   E  Q    E  Q       Q    S S E  S S E  S S E   
-------------------------|----------------------------|
-------------------------|----------------------------|
-------------------------|----------------------------|
------------2------------|-----------4------5------6--|
-----------------x--2----|--L-------------------------|
--L--3h--4----------0----|--L----2-2----3-3----4-4----|


  PM    PM       PM PM PM PM       PM PM PM PM    PM PM        
  E  E  E  E  E  E  E  S  S     E  E  E  S  S  E  S  S  E  E   
-----------------------------|--------------------------------|
-----------------------------|--------------------------------|
-----6-----6--7--------------|--4--------------6--------4--6--|
-----7-----7--7--------------|--7--------------7--------7--7--|
--0-----0--------0--0--0--0--|-----0--0--0--0-----0--0--------|
-----------------------------|--------------------------------|


  PM    PM       PM    PM                               PM PM PM PM PM        
  E  E  E  E  E  E  E  E     Q    E  Q    Q    E     E  E  E  E  E  E  E  E   
--------------------------|-----------------------|--------------------------|
--------------------------|--5----0--2----L----2--|-----------2--3-----2-----|
-----6-----6--7-----7-----|--4----2--2----L----2--|-----2-----------2--2--2--|
-----7-----7--7-----7-----|-----------------------|--------2-----------------|
--0-----0--------0-----0--|-----------------------|--------------------------|
--------------------------|-----------------------|--------------------------|


  PM PM PM PM PM  PM PM       PM PM PM PM PM PM PM PM  
  E  E  E  E  E   E  E  E     E  E  E  E  E  E  E  E   
---------------------------|--------------------------|
--------------0h--2-----2--|--L--------2--3--------2--|
--1--1-----1------2-----2--|--L--2-----------2--2-----|
--------2------------2-----|--2-----2-----------2-----|
---------------------------|--0-----------------------|
---------------------------|--------------------------|


  PM PM PM PM   PM             PM PM PM PM PM        
  E  E  E  Q    E  E  E     E  E  E  E  E  E  E  E   
----------------5-----5--|--------------------------|
----------------5-----5--|-----------2--3-----2-----|
--1--1-----1----2-----2--|-----2-----------2--2--2--|
--------2----------------|--------2-----------------|
-------------------------|--------------------------|
-------------------------|--------------------------|


  PM PM PM PM PM  PM PM       PM PM PM PM PM PM PM PM                          
  E  E  E  E  E   E  E  E     E  E  E  E  E  E  E  E     Q    E  Q.     E  E   
---------------------------|--------------------------|----------5------------|
--------------0h--2-----2--|--L--------2--3--------2--|--5----x--5---------3--|
--1--1-----1------2-----2--|--L--2-----------2--2-----|--4----x------------2--|
--------2------------2-----|--2-----2-----------2-----|-------x------------0--|
---------------------------|--0-----------------------|-----------------------|
---------------------------|--------------------------|-----------------------|


  H        Q    E  E     H        Q    E  E     Q    E  E  E   E  E  E   
----------------------|----------------------|--------------------------|
--L--------L----L--3--|--L--------L----L-----|-------3-----3p--2--------|
--L--------L----L--0--|--L--------L----L-----|-------2-----2---2--------|
--L--------L----L--0--|--L--------L----L--2--|--L-----------------------|
----------------------|-------------------0--|--L--------------------0--|
-------------------3--|--L--------L----L-----|--------------------------|


  E  E  E  E  E   E  E  E     H        Q    E  E     H        Q    E  E   
---------------------------|----------------------|----------------------|
--------3-----3p--2-----3--|--L--------L----L--3--|--L--------L----L-----|
--------2-----2---2-----2--|--L--------L----L--0--|--L--------L----L-----|
------------------------0--|--L--------L----L--0--|--L--------L----L-----|
--L------------------------|----------------------|----------------------|
---------------------------|-------------------3--|--L--------L----L--0--|


  E  E   E  Q    E  Q       Q    S S E  S S E  S S E   
-------------------------|----------------------------|
-------------------------|----------------------------|
-------------------------|----------------------------|
------------2------------|-----------4------5------6--|
-----------------x--2----|--L-------------------------|
--L--3h--4----------0----|--L----2-2----3-3----4-4----|


  PM    PM       PM PM PM PM       PM PM PM PM    PM PM        
  E  E  E  E  E  E  E  S  S     E  E  E  S  S  E  S  S  E  E   
-----------------------------|--------------------------------|
-----------------------------|--------------------------------|
-----6-----6--7--------------|--4--------------6--------4--6--|
-----7-----7--7--------------|--7--------------7--------7--7--|
--0-----0--------0--0--0--0--|-----0--0--0--0-----0--0--------|
-----------------------------|--------------------------------|


  PM    PM       PM    PM                            
  E  E  E  E  E  E  E  E     Q    E  Q    E  E   E   
--------------------------|-------------------------|
--------------------------|----------5----L------2--|
-----6-----6--7-----7-----|--9----4--6----L------2--|
-----7-----7--7-----7-----|--9----7--7----L------2--|
--0-----0--------0-----0--|----------7--------------|
--------------------------|------------------3b-----|


  PM    PM       PM PM PM PM       PM PM PM PM    PM PM        
  E  E  E  E  E  E  E  S  S     E  E  E  S  S  E  S  S  E  E   
-----------------------------|--------------------------------|
-----------------------------|--------------------------------|
-----6-----6--7--------------|--4--------------6--------4--6--|
-----7-----7--7--------------|--7--------------7--------7--7--|
--0-----0--------0--0--0--0--|-----0--0--0--0-----0--0--------|
-----------------------------|--------------------------------|


  PM    PM       PM    PM                                                 
  E  E  E  E  E  E  E  E     Q    E  H        E     H                     
--------------------------|----------------------|-----------|-----------|
--------------------------|--5-------------------|-----------|-----------|
-----6-----6--7-----7-----|--4----4--2--------L--|--L--------|-----------|
-----7-----7--7-----7-----|-------7--2--------L--|--L--------|-----------|
--0-----0--------0-----0--|----------0--------L--|--L--------|-----------|
--------------------------|----------------------|-----------|-----------|


  E  E  E  E  H           E  E  E  S  S S S E  Q        E  E  E  E  H         
--------------0--------|-----------0h-2-0------------|--------------0--------|
-----3--------3--------|--------3---------3-2--5\----|-----3--------3--------|
--------4--------------|-----4-----------------------|--------4--------------|
-----------0-----------|-----------------------------|-----------0-----------|
-----------------------|-----------------------------|-----------------------|
-----------------------|-----------------------------|-----------------------|


  Q    E  S S E  E  E  E     E  E  E  E  H         
--------------------------|--------------0--------|
----------2-3-2-----------|-----3--------3--------|
-----------------2--------|--------4--------------|
--------------------2-----|-----------0-----------|
-----------------------0--|--2--------------------|
--------------------------|-----------------------|


                                                             PM    PM       
  E  E  E  S  S S S E  Q        W                   E  E  E  E  E  E  Q     
-----------0h-2-0------------|-------------------|-------------------------|
--------3---------3-2--5\----|-------------------|-------------------------|
-----4-----------------------|--7----------------|--9-----9-----9----------|
-----------------------------|--7----------------|--9-----9-----9----------|
-----------------------------|--5----------------|--7-----7-----7----------|
-----------------------------|-------------------|-----------0-----0--0----|


                       PM    PM       PM PM PM PM  
  H        H           E  E  E  E  E  E  E  S  S   
--------------------|-----------------------------|
--------------------|-----------------------------|
--------------------|-----6-----6--7--------------|
--------------------|-----7-----7--7--------------|
--------------------|--0-----0--------0--0--0--0--|
--L-----------------|-----------------------------|


     PM PM PM PM    PM PM          PM    PM       PM    PM  
  E  E  E  S  S  E  S  S  E  E     E  E  E  E  E  E  E  E   
--------------------------------|--------------------------|
--------------------------------|--------------------------|
--4--------------6--------4--6--|-----6-----6--7-----7-----|
--7--------------7--------7--7--|-----7-----7--7-----7-----|
-----0--0--0--0-----0--0--------|--0-----0--------0-----0--|
--------------------------------|--------------------------|


                            PM    PM       PM PM PM PM  
  Q    E  Q    E  E   E     E  E  E  E  E  E  E  S  S   
-------------------------|-----------------------------|
----------5----L------2--|-----------------------------|
--9----4--6----L------2--|-----6-----6--7--------------|
--9----7--7----L------2--|-----7-----7--7--------------|
----------7--------------|--0-----0--------0--0--0--0--|
------------------3b-----|-----------------------------|


     PM PM PM PM    PM PM          PM    PM       PM    PM  
  E  E  E  S  S  E  S  S  E  E     E  E  E  E  E  E  E  E   
--------------------------------|--------------------------|
--------------------------------|--------------------------|
--4--------------6--------4--6--|-----6-----6--7-----7-----|
--7--------------7--------7--7--|-----7-----7--7-----7-----|
-----0--0--0--0-----0--0--------|--0-----0--------0-----0--|
--------------------------------|--------------------------|


                           PM    PM       PM PM PM PM  
  Q    E  Q    Q     E     E  E  E  E  E  E  E  S  S   
------------------------|-----------------------------|
----------5----L\-------|-----------------------------|
--9----4--6----L\-------|-----6-----6--7--------------|
--9----7--7----L\-------|-----7-----7--7--------------|
------------------------|--0-----0--------0--0--0--0--|
------------------------|-----------------------------|


     PM PM PM PM    PM PM          PM    PM       PM    PM  
  E  E  E  S  S  E  S  S  E  E     E  E  E  E  E  E  E  E   
--------------------------------|--------------------------|
--------------------------------|--------------------------|
--4--------------6--------4--6--|-----6-----6--7-----7-----|
--7--------------7--------7--7--|-----7-----7--7-----7-----|
-----0--0--0--0-----0--0--------|--0-----0--------0-----0--|
--------------------------------|--------------------------|


                           PM    PM       PM PM PM PM  
  Q    E  Q    Q     E     E  E  E  E  E  E  E  S  S   
------------------------|-----------------------------|
----------5----L\-------|-----------------------------|
--9----4--6----L\-------|-----6-----6--7--------------|
--9----7--7----L\-------|-----7-----7--7--------------|
------------------------|--0-----0--------0--0--0--0--|
------------------------|-----------------------------|


     PM PM PM PM    PM PM          PM    PM       PM    PM  
  E  E  E  S  S  E  S  S  E  E     E  E  E  E  E  E  E  E   
--------------------------------|--------------------------|
--------------------------------|--------------------------|
--4--------------6--------4--6--|-----6-----6--7-----7-----|
--7--------------7--------7--7--|-----7-----7--7-----7-----|
-----0--0--0--0-----0--0--------|--0-----0--------0-----0--|
--------------------------------|--------------------------|


  Q    E  Q    Q     E     H        Q    E  E     H        Q    E  E   
------------------------|----------------------|----------------------|
----------5----L\----3--|--L--------L----L--3--|--L--------L----L-----|
--9----4--6----L\----2--|--L--------L----L--0--|--L--------L----L-----|
--9----7--7----L\----0--|--L--------L----L--0--|--L--------L----L--2--|
------------------------|----------------------|-------------------0--|
------------------------|-------------------3--|--L--------L----L-----|


  Q    E  E  E   E  E  E     E  E  E  E  E   E  E  E     H        Q    E  E   
--------------------------|---------------------------|----------------------|
-------3-----3p--2--------|--------3-----3p--2-----3--|--L--------L----L--3--|
-------2-----2---2--------|--------2-----2---2-----2--|--L--------L----L--0--|
--L-----------------------|------------------------0--|--L--------L----L--0--|
--L--------------------0--|--L------------------------|----------------------|
--------------------------|---------------------------|-------------------3--|


  H        Q    E  E     E  E   E  Q    E  Q       Q    S S E  S S E  S S E   
----------------------|-------------------------|----------------------------|
--L--------L----L-----|-------------------------|----------------------------|
--L--------L----L-----|-------------------------|----------------------------|
--L--------L----L-----|------------2------------|-----------4------5------6--|
----------------------|-----------------x--2----|--L-------------------------|
--L--------L----L--0--|--L--3h--4----------0----|--L----2-2----3-3----4-4----|


  PM    PM       PM PM PM PM       PM PM PM PM    PM PM        
  E  E  E  E  E  E  E  S  S     E  E  E  S  S  E  S  S  E  E   
-----------------------------|--------------------------------|
-----------------------------|--------------------------------|
-----6-----6--7--------------|--4--------------6--------4--6--|
-----7-----7--7--------------|--7--------------7--------7--7--|
--0-----0--------0--0--0--0--|-----0--0--0--0-----0--0--------|
-----------------------------|--------------------------------|


  PM    PM       PM    PM                    PM     
  E  E  E  E  E  E  E  E     Q    E  Q    E  E  E   
--------------------------|------------------------|
--------------------------|----------5----L--------|
-----6-----6--7-----7-----|--9----4--6----L--------|
-----7-----7--7-----7-----|--9----7--7----L--------|
--0-----0--------0-----0--|------------------0--0--|
--------------------------|------------------------|


  PM    PM       PM PM PM PM       PM PM PM PM    PM PM        
  E  E  E  E  E  E  E  S  S     E  E  E  S  S  E  S  S  E  E   
-----------------------------|--------------------------------|
-----------------------------|--------------------------------|
-----6-----6--7--------------|--4--------------6--------4--6--|
-----7-----7--7--------------|--7--------------7--------7--7--|
--L-----0--------0--0--0--0--|-----0--0--0--0-----0--0--------|
-----------------------------|--------------------------------|


  PM    PM       PM    PM                    PM     
  E  E  E  E  E  E  E  E     Q    E  Q    E  E  E   
--------------------------|------------------------|
--------------------------|----------5----L--------|
-----6-----6--7-----7-----|--9----4--6----L--------|
-----7-----7--7-----7-----|--9----7--7----L--------|
--0-----0--------0-----0--|------------------0--0--|
--------------------------|------------------------|


  PM    PM       PM PM PM PM       PM PM PM PM    PM PM        
  E  E  E  E  E  E  E  S  S     E  E  E  S  S  E  S  S  E  E   
-----------------------------|--------------------------------|
-----------------------------|--------------------------------|
-----6-----6--7--------------|--4--------------6--------4--6--|
-----7-----7--7--------------|--7--------------7--------7--7--|
--L-----0--------0--0--0--0--|-----0--0--0--0-----0--0--------|
-----------------------------|--------------------------------|


  PM    PM       PM    PM                    PM     
  E  E  E  E  E  E  E  E     Q    E  Q    E  E  E   
--------------------------|------------------------|
--------------------------|----------5----L--------|
-----6-----6--7-----7-----|--9----4--6----L--------|
-----7-----7--7-----7-----|--9----7--7----L--------|
--0-----0--------0-----0--|------------------0--0--|
--------------------------|------------------------|


  PM    PM       PM PM PM PM       PM PM PM PM    PM PM        
  E  E  E  E  E  E  E  S  S     E  E  E  S  S  E  S  S  E  E   
-----------------------------|--------------------------------|
-----------------------------|--------------------------------|
-----6-----6--7--------------|--4--------------6--------4--6--|
-----7-----7--7--------------|--7--------------7--------7--7--|
--L-----0--------0--0--0--0--|-----0--0--0--0-----0--0--------|
-----------------------------|--------------------------------|


  PM    PM       PM    PM                    PM     
  E  E  E  E  E  E  E  E     Q    E  Q    E  E  E   
--------------------------|------------------------|
--------------------------|----------5----L--------|
-----6-----6--7-----7-----|--9----4--6----L--------|
-----7-----7--7-----7-----|--9----7--7----L--------|
--0-----0--------0-----0--|------------------0--0--|
--------------------------|------------------------|


  PM    PM       PM PM PM PM       PM PM PM PM    PM PM        
  E  E  E  E  E  E  E  S  S     E  E  E  S  S  E  S  S  E  E   
-----------------------------|--------------------------------|
-----------------------------|--------------------------------|
-----6-----6--7--------------|--4--------------6--------4--6--|
-----7-----7--7--------------|--7--------------7--------7--7--|
--L-----0--------0--0--0--0--|-----0--0--0--0-----0--0--------|
-----------------------------|--------------------------------|


  PM    PM       PM    PM                    PM      
  E  E  E  E  E  E  E  E     Q    E  Q    E  E  E    
--------------------------|------------------------||
--------------------------|----------5----L--------||
-----6-----6--7-----7-----|--9----4--6----L--------||
-----7-----7--7-----7-----|--9----7--7----L--------||
--0-----0--------0-----0--|------------------0--0--||
--------------------------|------------------------||


================================================================================


Guitar 2 (lead)

                                     H        Q    Q       W                 
E||-------|-------|-------|-------|---------------------|-------------------|
B||-------|-------|-------|-------|---------------------|-------------------|
G||-------|-------|-------|-------|----------------2----|--L----------------|
D||-------|-------|-------|-------|----------------2----|--L----------------|
A||-------|-------|-------|-------|----------------0----|--L----------------|
E||-------|-------|-------|-------|---------------------|-------------------|


  W                   W                                                         
-------------------|-------------------|-------|-------|-------|-------|-------|
-------------------|-------------------|-------|-------|-------|-------|-------|
--L----------------|--L----------------|-------|-------|-------|-------|-------|
--L----------------|--L----------------|-------|-------|-------|-------|-------|
--L----------------|--L----------------|-------|-------|-------|-------|-------|
-------------------|-------------------|-------|-------|-------|-------|-------|


                                PM PM PM PM PM PM PM PM  
                                E  E  E  E  E  E  E  E   
-------|-------|-------|-----|--------------------------|
-------|-------|-------|-----|--------------------------|
-------|-------|-------|-----|--------------7-----6-----|
-------|-------|-------|-----|--7--7--7--7-----7-----7--|
-------|-------|-------|-----|--------------------------|
-------|-------|-------|-----|--------------------------|


  PM PM PM PM PM PM PM PM    PM PM PM PM PM PM PM PM  
  E  E  E  E  E  E  E  E     E  E  E  E  E  E  E  E   
--------------------------|--------------------------|
--------------------------|--------------------------|
-----4--------6-----4--6--|--------6-----7-----6-----|
--6-----6--6-----7--7--7--|--7--7-----7-----7-----7--|
--------------------------|--------------------------|
--------------------------|--------------------------|


  PM PM PM PM PM             PM PM PM PM PM PM PM PM  
  E  E  E  E  E  E  E  E     E  E  E  E  E  E  E  E   
-----------------5-----5--|--------------------------|
-----------------5-----5--|--------------------------|
-----4--------6-----------|--------------7-----6-----|
--6-----6--6--------------|--7--7--7--7-----7-----7--|
--------------------------|--------------------------|
--------------------------|--------------------------|


  PM PM PM PM PM PM PM PM    PM PM PM PM PM PM PM PM                           
  E  E  E  E  E  E  E  E     E  E  E  E  E  E  E  E     E  E  E  Q.     E  E   
--------------------------|--------------------------|------------------------|
--------------------------|--------------------------|---------------------3--|
-----4--------6-----4--6--|--------6-----7-----7-----|--9--------6---------2--|
--6-----6--6-----7--7--7--|--7--7-----7-----7-----7--|--9--7--6--7---------0--|
--------------------------|--------------------------|-----------7------------|
--------------------------|--------------------------|------------------------|


                                                        PM    PM        
  H        Q    E  E     H        Q    E  E     Q    E  E  E  E  E  E   
----------------------|----------------------|-------------------------|
--L--------L----L--3--|--L--------L----L-----|-------------------------|
--L--------L----L--0--|--L--------L----L-----|-------6-----7-----7-----|
--L--------L----L--0--|--L--------L----L--2--|-------7-----7-----7-----|
----------------------|-------------------0--|--L-------0-----0-----0--|
-------------------3--|--L--------L----L-----|-------------------------|


  E  E  E  H        E     H        Q    E  E     H        Q    E  E   
-----------------------|----------------------|----------------------|
--------------------3--|--L--------L----L--3--|--L--------L----L-----|
--4-----x--6--------2--|--L--------L----L--0--|--L--------L----L-----|
--7-----x--7--------0--|--L--------L----L--0--|--L--------L----L-----|
--------x--------------|----------------------|----------------------|
-----------------------|-------------------3--|--L--------L----L--0--|


  E  E   E  Q    E  Q       Q    S S E  S S E  S S E     Q     H        Q     
-------------------------|----------------------------|----------------------|
-------------------------|----------------------------|----------------------|
-------------------------|----------------------------|----------------------|
------------2------------|-----------4------5------6--|--7\------------------|
-----------------2--L----|--L-------------------------|----------------------|
--L--3h--4-------0--L----|--L----2-2----3-3----4-4----|----------------------|


  W                   E  E  E  E  E  E  E  E     E  E  E  H        E   
-------------------|--------------------------|-----------------------|
-------------------|--------------------------|-----------------------|
-------------------|-----6--6--6--7-----7-----|-----------6-----------|
-------------------|--------------------------|--9--9--7--------------|
-------------------|--------------------------|-----------------------|
-------------------|--------------------------|-----------------------|


  PM PM PM PM PM PM PM PM    PM PM PM PM PM PM PM PM  
  E  E  E  E  E  E  E  E     E  E  E  E  E  E  E  E   
--------------------------|--------------------------|
--------------------------|--------------------------|
--------------7-----6-----|-----4--------6-----4--6--|
--7--7--7--7-----7-----7--|--6-----6--6-----7--7--7--|
--------------------------|--------------------------|
--------------------------|--------------------------|


  PM PM PM PM PM PM PM PM    PM PM PM PM PM           
  E  E  E  E  E  E  E  E     E  E  E  E  E  E  E  E   
--------------------------|-----------------5-----5--|
--------------------------|-----------------5-----5--|
--------6-----7-----6-----|-----4--------6-----------|
--7--7-----7-----7-----7--|--6-----6--6--------------|
--------------------------|--------------------------|
--------------------------|--------------------------|


  PM PM PM PM PM PM PM PM    PM PM PM PM PM PM PM PM  
  E  E  E  E  E  E  E  E     E  E  E  E  E  E  E  E   
--------------------------|--------------------------|
--------------------------|--------------------------|
--------------7-----6-----|-----4--------6-----4--6--|
--7--7--7--7-----7-----7--|--6-----6--6-----7--7--7--|
--------------------------|--------------------------|
--------------------------|--------------------------|


  PM PM PM PM PM PM PM PM                                                  
  E  E  E  E  E  E  E  E     E  E  E  Q.     E  E     H        Q    E  E   
--------------------------|------------------------|----------------------|
--------------------------|---------------------3--|--L--------L----L--3--|
--------6-----7-----7-----|--9--------6---------2--|--L--------L----L--0--|
--7--7-----7-----7-----7--|--9--7--6--7---------0--|--L--------L----L--0--|
--------------------------|-----------7------------|----------------------|
--------------------------|------------------------|-------------------3--|


  H        Q    E  E     Q    E  E  E   E  E  E     E  E  E  E  E   E  E  E   
----------------------|--------------------------|---------------------------|
--L--------L----L-----|-------3-----3p--2--------|--------3-----3p--2-----3--|
--L--------L----L-----|-------2-----2---2--------|--------2-----2---2-----2--|
--L--------L----L--2--|--L-----------------------|------------------------0--|
-------------------0--|--L--------------------0--|--L------------------------|
--L--------L----L-----|--------------------------|---------------------------|


  H        Q    E  E     H        Q    E  E     E  E   E  Q    E  Q     
----------------------|----------------------|-------------------------|
--L--------L----L--3--|--L--------L----L-----|-------------------------|
--L--------L----L--0--|--L--------L----L-----|-------------------------|
--L--------L----L--0--|--L--------L----L-----|------------2------------|
----------------------|----------------------|-----------------x--2----|
-------------------3--|--L--------L----L--0--|--L--3h--4----------0----|


  Q    S S E  S S E  S S E     Q     H        Q       W                 
----------------------------|----------------------|-------------------|
----------------------------|----------------------|-------------------|
----------------------------|----------------------|-------------------|
-----------4------5------6--|--7\------------------|-------------------|
--L-------------------------|----------------------|-------------------|
--L----2-2----3-3----4-4----|----------------------|-------------------|


  E  E  Q    Q    E  E      E  E  E  Q    E  E   E      Q     H.            
------------------------|----------------------------|---------------------|
------------------------|----------------------------|---------------------|
--------2----2----------|------------2----x--4b--4b--|--L\-----------------|
-----2------------4--2--|------2--4------------------|---------------------|
------------------------|--/4------------------------|---------------------|
------------------------|----------------------------|---------------------|


                      PM                                               
  W                   E  E  E  E  E  E  E  E      Q    E  H        E   
-------------------|---------------------------|----------------------|
-------------------|---------------------------|----------------------|
-------------------|-----6-----6--7-----7--Ls--|--9----4--2--------L--|
-------------------|-----7-----7--7-----7--Ls--|--9----7--2--------L--|
-------------------|--0------------------------|----------0--------L--|
-------------------|---------------------------|----------------------|


  H                                                                         
-----------|-------|-------|-------|-------|-------|-------|-------|-------|
-----------|-------|-------|-------|-------|-------|-------|-------|-------|
--L--------|-------|-------|-------|-------|-------|-------|-------|-------|
--L--------|-------|-------|-------|-------|-------|-------|-------|-------|
--L--------|-------|-------|-------|-------|-------|-------|-------|-------|
-----------|-------|-------|-------|-------|-------|-------|-------|-------|


                           PM PM                                            
                  E  E  E  S  S  Q    E  E     E   Q.      S  S  S S Q      
-------|-------|----------------------------|------------------------------|
-------|-------|----------------------------|--5---5-----------------------|
-------|-------|-----------------2----4--2--|--4b--4b------2h-4p-2---2~----|
-------|-------|-----2--4--2--4-------------|----------------------4-------|
-------|-------|----------------------------|------------------------------|
-------|-------|----------------------------|------------------------------|


  E  E  E  E   E  E  S  S E      E  E   E  Q    E   Q      
-----------------------------|----------------------------|
--3--2--3--2b--2-------------|------------------5---L-----|
------------------2----------|-------------2----4b--Lb----|
---------------------2h-4-2--|------2---------------------|
-----------------------------|--/4-----/4-----------------|
-----------------------------|----------------------------|


  PM PM PM PM     PM PM           PM PM PM  
  S  S  S  S  E   S  S  S S E   S S  S  S   
-------------------------------------------|
-------------------------------------------|
--------------2~--------2-2-4b----2--------|
-----0--2--4------4--2---------------4--2--|
--4----------------------------------------|
-------------------------------------------|


  PM PM PM PM PM PM PM PM                                                       
  S  S  S  S  S  S  S  S  S S S S E    E      E  S  S S S S  S S S S S S S S S  
-------------------------------------------|-----5p-2---2----------------------|
--------------------------5-2--------------|----------5---5p-2---2-------------|
------------------------------4-2-4br--2~--|--L----------------4---5-4-2-4-2---|
--4--2--------4--2-------------------------|---------------------------------4-|
--------4--2--------4--2-------------------|-----------------------------------|
-------------------------------------------|-----------------------------------|


  S  S S  S S  S H         E    
-------------------------------|
-------------------------------|
--4p-2-----------2~--------L/--|
-------4p-2----------------x---|
------------4p-2---------------|
-------------------------------|


   S. T  S. T  S. T  S. T  S. T  S. T  S. T  S. T  
--------------------------------------------------|
--10----10----10----10----10----10----10----10----|
---9b----9b----9b----9b----9b----9b----9b----9b---|
--------------------------------------------------|
--------------------------------------------------|
--------------------------------------------------|


                                              PM PM                  
   E    Q        E   Q     Q       E   E   E  S  S   E   E   E   E   
--------------------------------|-----------------------------------|
--10---10-------10--10----------|-----------------------------------|
---9b---9pbr-----9---9-----9----|------9---9---------9---9---9---9--|
--------------------------11----|-----12--11--------12--11--12--11--|
--------------------------------|-------------0--0------------------|
--------------------------------|-----------------------------------|


     PM PM                                                               
  E  S  S   E   Q     Q     E      E   E   E    E    E   S S  E   S   S  
-------------------------------|----------------------------------------|
-------------------------------|------10--10~--10-------12---12---------|
--9---------9---9--------------|--/9-------L-------/11-------11--11s-14-|
--9--------12--11-----L\-------|----------------------------------------|
-----0--0----------------------|----------------------------------------|
-------------------------------|----------------------------------------|


   E   E   E   E   Q.     E      S.T  S.T  S.T  S.T  S.T  S.T  S.T  S.T  
-----------------------------|------------------------------------------|
--14--14--14--12--14---------|--15---15---15---15---15---15---15---15---|
--14--14--14--14--14---------|--14---14---14---14---14---14---14---14---|
-----------------------------|------------------------------------------|
-----------------------------|------------------------------------------|
-----------------------------|------------------------------------------|


   S.T  S.T  S.T  H         E       Q     Q       E   E   E   E   
---------------------------14b--|---L----14pb----14--12----------|
--15---14---15---14-------------|------------------------15--14--|
--14---14---14---14-------------|--------------------------------|
--------------------------------|--------------------------------|
--------------------------------|--------------------------------|
--------------------------------|--------------------------------|


   H         H             Q     E  E   E  E   E  E   
-----------------------|-----------------------------|
--14--------14b--------|--14----14-----14-----14-----|
-----------------------|--------14-----14-----14-----|
-----------------------|-----------------------------|
-----------------------|-----------------------------|
-----------------------|-----------------------------|


                                           burried under mix                  
   S  S  S  S  E  E   S  S  S  S  E  E     W                                  
----------------------------------------|--------------------|-------|-------|
--14-14-14-14-14-----14-14-14-14-14-----|--------------------|-------|-------|
--14-14-14-14-14-----14-14-14-14-14-----|--------------------|-------|-------|
----------------------------------------|--------------------|-------|-------|
----------------------------------------|--------------------|-------|-------|
----------------------------------------|--------------------|-------|-------|


  H        Q    E   S  S     Q    H.                    
-------------------21-22-|--24-----------------|-------|
-------------------------|---------------------|-------|
-------------------------|---------------------|-------|
-------------------------|---------------------|-------|
-------------------------|---------------------|-------|
-------------------------|---------------------|-------|


  E  E    Q      Q      E  E      E  E   E   Q     E    E    E   
------------------------------|-------------------12---12---12--|
-----7s--10~----10~-----------|-------------10----12b--12b--14--|
-----------------------11--9--|------9--11----------------------|
------------------------------|--11-----------------------------|
------------------------------|---------------------------------|
------------------------------|---------------------------------|


   Q     H.              H.           Q     
---L\-----------------|--------------------|
---L\-----------------|--------------------|
---------2------------|--L-----------------|
---------2------------|--L-----------------|
---------0------------|--L-----------------|
----------------------|--------------------|


   E   E   E   E    E   E    E   E      E.      S  Q     Q     E   E   
------------------------------------|---------------------------------|
--15--14--15--14b--14---------------|-------------------------14--17--|
-----------------------14-------14--|--16pbr---14-14-----L------------|
---------------------------/16------|---------------------------------|
------------------------------------|---------------------------------|
------------------------------------|---------------------------------|


   W                            Q     Q      E    E   Q     
--16b----------------|-------|-------19b----19b--17--17----|
---------------------|-------|-----------------------------|
---------------------|-------|-----------------------------|
---------------------|-------|-----------------------------|
---------------------|-------|-----------------------------|
---------------------|-------|-----------------------------|


   E.    E.    E    E    E   S   S  E      E   Q     Q     Q.            
--19b---19b---19b--19b--19--17p-14-17--|---L--17-----L\-----------|-----|
---------------------------------------|--------------------------|-----|
---------------------------------------|--------------------------|-----|
---------------------------------------|--------------------------|-----|
---------------------------------------|--------------------------|-----|
---------------------------------------|--------------------------|-----|


   Q.       Q.       Q         E     Q.       S   S  E   E   E   
--22b------22b------22b----|---Lpb--22b------21h-22-21----------|
---------------------------|----------------------------22--22--|
---------------------------|------------------------------------|
---------------------------|------------------------------------|
---------------------------|------------------------------------|
---------------------------|------------------------------------|


   Q     H.                                     
----------------------|-------|-------|-------||
---L\-----------------|-------|-------|-------||
----------------------|-------|-------|-------||
----------------------|-------|-------|-------||
----------------------|-------|-------|-------||
----------------------|-------|-------|-------||




Duration Legend
---------------
W - whole
H - half
Q - quarter
E - 8th
S - 16th
T - 32nd
X - 64th
. - note dotted
|-n-|  - n-tuplets


Tablature Legend
----------------
L - tied note
x - dead note
g - grace note
(n) - ghost note
> - accentuded note
NH - natural harmonic
AH - artificial harmonic
TH - tapped harmonic
SH - semi harmonic
PH - pitch harmonic
h - hammer on
p - pull off
b - bend
br - bendRelease
pb - preBend
pbr - preBendRelease
brb - bendReleaseBend
\n/ - tremolo bar dip
\n - tremolo bar dive
-/n - tremolo bar Release up
/n\ - tremolo bar inverted dip
/n - tremolo bar return
-\n - tremolo bar Release down
S - shift slide
s - legato slide
/ -  slide into from below or out of upwards
\ -  slide into from above or out of downwards
~ - vibrato
W - wide vibrato
tr - trill
TP - tremolo picking
T - tapping
S - slap
P - pop
< - fade in
^ - brush up
v - brush down





Comments


Popular Van Zant tabs & chords
Im A Fighter Bass Tabs
Midnight Sensation Bass Tabs
Been There Done That Chords
Sweet Mama Chords
These Colors Don't Run Chords
Im A Fighter Tabs
Things I Miss The Most Tabs
Your Takin' Up Space Tabs
I Cant Help Myself Ukulele
Things I Miss The Most Ukulele


Song lyrics



↑ Back to top | Tablatures and chords are parodies/interpretations of the original songs. You may use it for private study, scholarship, research or language learning purposes only
© 2014 AZChords.com Contact us | Privacy policy | DMCA | Add/correct tabs | Request tabs | Top 50 tabs