>
 >
The Search Party Never Came

The Search Party Never Came Guitar Tabs

Vanna - The Search Party Never Came chords, tabs, tablatures, lyrics

Guitar lessons | Add/correct | Request | Top 50 tabs Artists:  A B C D E F G H I J K L M N O P Q R S T U V W X Y Z 0-9

The Search Party Never Came Guitar Tabs – Vanna

CD, Sheet music, Poster

Do you like The Search Party Never Came? Share with your friends now
Tabs


                                                                           Vanna

     E  E  E  E  E  E  E  E     E  E  E  E  E    E   E   E
D||--------------------------|------------------------------|
A||--------------------------|------------------------------|
F||--5--5-----5--5-----5--5--|-----5--5-----5s--12--12--12--|
C||--3--3-----3--3-----3--3--|-----3--3-----3s--12--12--12--|
G||--3--3-----3--3-----3--3--|-----3--3-----3s--10--10--10--|
C||--3--3-----3--3-----3--3--|-----3--3-----3s--10--10--10--|


  E  E  E  E  E  E  E  E     E  E  E  E  E    E   E   E
--------------------------|------------------------------|
--------------------------|------------------------------|
--5--5-----5--5-----5--5--|-----5--5-----5---------------|
--3--3-----3--3-----3--3--|-----3--3-----3s--10--10--10--|
--3--3-----3--3-----3--3--|-----3--3-----3s---8---8---8--|
--3--3-----3--3-----3--3--|-----3--3-----3s---8---8---8--|


  E  E  E  E  E  E  E  E     E  E  E  E  E    E   E   E
--------------------------|------------------------------|
--------------------------|------------------------------|
--5--5-----5--5-----5--5--|-----5--5-----5s--12--12--12--|
--3--3-----3--3-----3--3--|-----3--3-----3s--12--12--12--|
--3--3-----3--3-----3--3--|-----3--3-----3s--10--10--10--|
--3--3-----3--3-----3--3--|-----3--3-----3s--10--10--10--|


  E  E  E  E  E  E  E  E     E  E  E  E   H
--------------------------|------------------------|
--------------------------|------------------------|
--5--5-----5--5-----5--5--|-----5--5---------------|
--3--3-----3--3-----3--3--|-----3--3-----10--------|
--3--3-----3--3-----3--3--|-----3--3------8--------|
--3--3-----3--3-----3--3--|-----3--3------8--------|


    PM PM PM PM PM PM                     PM PM PM PM PM PM
    |--3--|  |--3--|                      |--3--|  |--3--|
    E  E  E  E  E  E   E    E   E   E     E  E  E  E  E  E   E    E   E   E
|--------------------------------------|------------------------------------|
|--------------------------------------|------------------------------------|
|*--------------------12s--14--14--14--|--------------------17s--14--14--14-|
|*---------------------x----x---x---x--|---------------------x----x---x---x-|
|---0--0--0--0--0--0--10s--12--12--12--|--0--0--0--0--0--0--15s--12--12--12-|
|---0--0--0--0--0--0-------------------|--0--0--0--0--0--0------------------|


  E  E  E  E  E  E   E   E     E   E   E  E   E   E   E   E
----------------------------|--------------------------------|
----------------------------|--------------------------------|
--5--5-----5--5-----12--12--|-----12--12-----12--12--12--12--|
--3--3-----3--3-----12--12--|-----12--12-----12--12--12--12--|
--3--3-----3--3-----10--10--|-----10--10-----10--10--10--10--|
--3--3-----3--3-----10--10--|-----10--10-----10--10--10--10--|


  PM PM PM PM PM PM                     PM PM PM PM PM PM
  |--3--|  |--3--|                      |--3--|  |--3--|
  E  E  E  E  E  E   E    E   E   E     E  E  E  E  E  E   E    E   E   E
-------------------------------------|-------------------------------------|
-------------------------------------|-------------------------------------|
--------------------12s--14--14--14--|--------------------17s--19--19--19--|
---------------------x----x---x---x--|---------------------x----x---x---x--|
--0--0--0--0--0--0--10s--12--12--12--|--0--0--0--0--0--0--15s--17--17--17--|
--0--0--0--0--0--0-------------------|--0--0--0--0--0--0-------------------|


  E  E  E  E  E  E   E   E     E   E   E  E   E   E   E   E
----------------------------|---------------------------------||
----------------------------|---------------------------------||
--5--5-----5--5-----12--12--|-----12--12-----12--12--12--12--*||
--3--3-----3--3-----12--12--|-----12--12-----12--12--12--12--*||
--3--3-----3--3-----10--10--|-----10--10-----10--10--10--10---||
--3--3-----3--3-----10--10--|-----10--10-----10--10--10--10---||


  E  E  E  E  E  E  E  E     E  E  E  E  E  E  E  E
--0--0--------5--------8--|--------8-----8-----8-----|
--------6--6-----6--6-----|--6--6-----6-----6-----6--|
--------------------------|--------------------------|
--------------------------|--------------------------|
--------------------------|--------------------------|
--------------------------|--------------------------|


  E  E  E  E  E  E  E  E     E  E  E  E  E  E  E  E
--0--0--------5--------8--|--------8-----8-----8-----|
--------6--6-----6--6-----|--6--6-----6-----6-----6--|
--------------------------|--------------------------|
--------------------------|--------------------------|
--------------------------|--------------------------|
--------------------------|--------------------------|


  E  E  E  E  E  E  E  E     E  E  E  E  E  E  E  E
--0--0--------5--------8--|--------8-----8-----8-----|
--------6--6-----6--6-----|--6--6-----6-----6-----6--|
--------------------------|--------------------------|
--------------------------|--------------------------|
--------------------------|--------------------------|
--------------------------|--------------------------|


   E   E  E   E   E  E   E   E     E   E   E  E  E    E   Q
--------------------------------|------------------------------|
--------------------------------|------------------------------|
--10--10-----10--10-----12--12--|-----12--12-----9s--10s--7----|
---x---x------x---x------x---x--|------x---x-----x----x---x----|
---8---8------8---8-----10--10--|-----10--10-----7s---8s--5----|
--------------------------------|------------------------------|


  E  E  E  E  E  E  E  E     E  E  E  E  E  E  E  E
--0--0--------5--------8--|--------8-----8-----8-----|
--------6--6-----6--6-----|--6--6-----6-----6-----6--|
--------------------------|--------------------------|
--------------------------|--------------------------|
--------------------------|--------------------------|
--------------------------|--------------------------|


  E  E  E  E  E  E  E  E     E  E  E  E  E  E  E  E
--0--0--------5--------8--|--------8-----8-----8-----|
--------6--6-----6--6-----|--6--6-----6-----6-----6--|
--------------------------|--------------------------|
--------------------------|--------------------------|
--------------------------|--------------------------|
--------------------------|--------------------------|


  E  E  E  E  E  E  E  E     E  E  E  E  E  E  E  E
--0--0--------5--------8--|--------8-----8-----8-----|
--------6--6-----6--6-----|--6--6-----6-----6-----6--|
--------------------------|--------------------------|
--------------------------|--------------------------|
--------------------------|--------------------------|
--------------------------|--------------------------|


   E   E  E   E   E  E   E   E     E   E   E    E   H
--------------------------------|----------------------------|
--------------------------------|----------------------------|
--10--10-----10--10-----12--12--|-----12--12s--14--17--------|
---x---x------x---x------x---x--|------x---x----x---x--------|
---8---8------8---8-----10--10--|-----10--10s--12--15--------|
--------------------------------|----------------------------|


  E  E  E  E  E  E  E  E     E  E  E  E  E    E   E   E
--------------------------|------------------------------|
--------------------------|------------------------------|
--5--5-----5--5-----5--5--|-----5--5-----5s--12--12--12--|
--3--3-----3--3-----3--3--|-----3--3-----3s--12--12--12--|
--3--3-----3--3-----3--3--|-----3--3-----3s--10--10--10--|
--3--3-----3--3-----3--3--|-----3--3-----3s--10--10--10--|


  E  E  E  E  E  E  E  E     E  E  E  E   H
--------------------------|------------------------|
--------------------------|------------------------|
--5--5-----5--5-----5--5--|-----5--5---------------|
--3--3-----3--3-----3--3--|-----3--3-----10--------|
--3--3-----3--3-----3--3--|-----3--3------8--------|
--3--3-----3--3-----3--3--|-----3--3------8--------|


    PM PM PM PM PM PM                     PM PM PM PM PM PM
    |--3--|  |--3--|                      |--3--|  |--3--|
    E  E  E  E  E  E   E    E   E   E     E  E  E  E  E  E   E    E   E   E
|--------------------------------------|------------------------------------|
|--------------------------------------|------------------------------------|
|*--------------------12s--14--14--14--|--------------------17s--14--14--14-|
|*---------------------x----x---x---x--|---------------------x----x---x---x-|
|---0--0--0--0--0--0--10s--12--12--12--|--0--0--0--0--0--0--15s--12--12--12-|
|---0--0--0--0--0--0-------------------|--0--0--0--0--0--0------------------|


  E  E  E  E  E  E   E   E     E   E   E  E   E   E   E   E
----------------------------|--------------------------------|
----------------------------|--------------------------------|
--5--5-----5--5-----12--12--|-----12--12-----12--12--12--12--|
--3--3-----3--3-----12--12--|-----12--12-----12--12--12--12--|
--3--3-----3--3-----10--10--|-----10--10-----10--10--10--10--|
--3--3-----3--3-----10--10--|-----10--10-----10--10--10--10--|


  PM PM PM PM PM PM                     PM PM PM PM PM PM
  |--3--|  |--3--|                      |--3--|  |--3--|
  E  E  E  E  E  E   E    E   E   E     E  E  E  E  E  E   E    E   E   E
-------------------------------------|-------------------------------------|
-------------------------------------|-------------------------------------|
--------------------12s--14--14--14--|--------------------17s--19--19--19--|
---------------------x----x---x---x--|---------------------x----x---x---x--|
--0--0--0--0--0--0--10s--12--12--12--|--0--0--0--0--0--0--15s--17--17--17--|
--0--0--0--0--0--0-------------------|--0--0--0--0--0--0-------------------|


  E  E  E  E  E  E   E   E     E   E   E  E   E   E   E   E
----------------------------|---------------------------------||
----------------------------|---------------------------------||
--5--5-----5--5-----12--12--|-----12--12-----12--12--12--12--*||
--3--3-----3--3-----12--12--|-----12--12-----12--12--12--12--*||
--3--3-----3--3-----10--10--|-----10--10-----10--10--10--10---||
--3--3-----3--3-----10--10--|-----10--10-----10--10--10--10---||


  E  E  E  E  E  E  E  E     E  E  E  E  E  E  E  E
--0--0--------5--------8--|--------8-----8-----8-----|
--------6--6-----6--6-----|--6--6-----6-----6-----6--|
--------------------------|--------------------------|
--------------------------|--------------------------|
--------------------------|--------------------------|
--------------------------|--------------------------|


  E  E  E  E  E  E  E  E     E  E  E  E  E  E  E  E
--0--0--------5--------8--|--------8-----8-----8-----|
--------6--6-----6--6-----|--6--6-----6-----6-----6--|
--------------------------|--------------------------|
--------------------------|--------------------------|
--------------------------|--------------------------|
--------------------------|--------------------------|


  E  E  E  E  E  E  E  E     E  E  E  E  E  E  E  E
--0--0--------5--------8--|--------8-----8-----8-----|
--------6--6-----6--6-----|--6--6-----6-----6-----6--|
--------------------------|--------------------------|
--------------------------|--------------------------|
--------------------------|--------------------------|
--------------------------|--------------------------|


   E   E  E   E   E  E   E   E     E   E   E  E  E    E   Q
--------------------------------|------------------------------|
--------------------------------|------------------------------|
--10--10-----10--10-----12--12--|-----12--12-----9s--10s--7----|
---x---x------x---x------x---x--|------x---x-----x----x---x----|
---8---8------8---8-----10--10--|-----10--10-----7s---8s--5----|
--------------------------------|------------------------------|


  E  E  E  E  E  E  E  E     E  E  E  E  E  E  E  E
--0--0--------5--------8--|--------8-----8-----8-----|
--------6--6-----6--6-----|--6--6-----6-----6-----6--|
--------------------------|--------------------------|
--------------------------|--------------------------|
--------------------------|--------------------------|
--------------------------|--------------------------|


  E  E  E  E  E  E  E  E     E  E  E  E  E  E  E  E
--0--0--------5--------8--|--------8-----8-----8-----|
--------6--6-----6--6-----|--6--6-----6-----6-----6--|
--------------------------|--------------------------|
--------------------------|--------------------------|
--------------------------|--------------------------|
--------------------------|--------------------------|


  E  E  E  E  E  E  E  E     E  E  E  E  E  E  E  E
--0--0--------5--------8--|--------8-----8-----8-----|
--------6--6-----6--6-----|--6--6-----6-----6-----6--|
--------------------------|--------------------------|
--------------------------|--------------------------|
--------------------------|--------------------------|
--------------------------|--------------------------|


   E   E  E   E   E  E   E   E     E   E   E    E   H
--------------------------------|-----------------------------|
--------------------------------|-----------------------------|
--10--10-----10--10-----12--12--|-----12--12s--14--17\--------|
---x---x------x---x------x---x--|------x---x----x---x---------|
---8---8------8---8-----10--10--|-----10--10s--12--15\--------|
--------------------------------|-----------------------------|


                                       PM PM PM PM
  E  E  E  E  Q    E  E     E  E  Q    S  S  S  S  Q
-------------------------|------------------------------|
-------------------------|------------------------------|
-------------------------|------------------------------|
--3--2--0--2-------3--2--|--0--2-------------------2----|
--3--2--0--2-------3--2--|--0--2-------2--2--2--2--2----|
--3--2--0--2-------3--2--|--0--2-------2--2--2--2--2----|


  PM PM PM         PM PM PM PM    PM PM PM PM
  E  E  E  E  Q    S  S  S  S     E  E  E  E  H
-------------------------------|-----------------------|
-------------------------------|-----------------------|
-------------------------------|-----------------------|
-----------2-------------------|--------------6--------|
--3--2--0--2-------2--2--2--2--|--2--0--2--3--6--------|
--3--2--0--2-------2--2--2--2--|--2--0--2--3--6--------|


                                       PM PM PM PM
  E  E  E  E  Q    E  E     E  E  Q    S  S  S  S  Q
-------------------------|------------------------------|
-------------------------|------------------------------|
-------------------------|------------------------------|
--3--2--0--2-------3--2--|--0--2-------------------2----|
--3--2--0--2-------3--2--|--0--2-------2--2--2--2--2----|
--3--2--0--2-------3--2--|--0--2-------2--2--2--2--2----|


  PM PM PM         PM PM PM PM    PM PM PM PM
  E  E  E  E  Q    S  S  S  S     E  E  E  E  H           E  E  E  E  H
-------------------------------|-----------------------|---------------------|
-------------------------------|-----------------------|---------------------|
-------------------------------|-----------------------|---------------------|
-----------2-------------------|--------------6--------|--3--2--0--2---------|
--3--2--0--2-------2--2--2--2--|--2--0--2--3--6--------|--3--2--0--2---------|
--3--2--0--2-------2--2--2--2--|--2--0--2--3--6--------|--3--2--0--2---------|


           PM PM PM PM PM PM                       PM PM
  H        S  S  E  S  S  E     E  E  E  E  Q.     S  S
-----------------------------|---------------------------|
-----------------------------|---------------------------|
-----------------------------|---------------------------|
-----------------------------|--3--2--0--2---------------|
-----------0--0--0--0--0--0--|--3--2--0--2---------0--0--|
-----------0--0--0--0--0--0--|--3--2--0--2---------0--0--|


  PM  PM  PM PM PM  PM  PM PM
  E.  E.  S  S  E.  E.  S  S     E  E  E  E  H
------------------------------|-----------------------|
------------------------------|-----------------------|
------------------------------|-----------------------|
------------------------------|--3--2--0--2-----------|
--0---0---0--0--0---0---0--0--|--3--2--0--2-----------|
--0---0---0--0--0---0---0--0--|--3--2--0--2-----------|


           PM PM PM PM PM PM                       PM PM
  H        S  S  E  S  S  E     E  E  E  E  Q.     S  S
-----------------------------|---------------------------|
-----------------------------|---------------------------|
-----------------------------|---------------------------|
-----------------------------|--3--2--0--2---------------|
-----------0--0--0--0--0--0--|--3--2--0--2---------0--0--|
-----------0--0--0--0--0--0--|--3--2--0--2---------0--0--|


  PM  PM  PM PM PM  PM  PM PM
  E.  E.  S  S  E.  E.  S  S     E  E  E  E  H
------------------------------|------------------------|
------------------------------|------------------------|
------------------------------|------------------------|
------------------------------|--3--2--0--2--Ls--------|
--0---0---0--0--0---0---0--0--|--3--2--0--2--Ls--------|
--0---0---0--0--0---0---0--0--|--3--2--0--2--Ls--------|


            PM PM PM PM PM PM                       PM PM
   H        S  S  E  S  S  E     E  E  E  E  Q.     S  S
------------------------------|---------------------------|
------------------------------|---------------------------|
------------------------------|---------------------------|
--14--------------------------|--3--2--0--2---------------|
--14--------0--0--0--0--0--0--|--3--2--0--2---------0--0--|
--14--------0--0--0--0--0--0--|--3--2--0--2---------0--0--|


  PM  PM  PM PM PM  PM  PM PM
  E.  E.  S  S  E.  E.  S  S     E  E  E  E  H
------------------------------|-----------------------|
------------------------------|-----------------------|
------------------------------|-----------------------|
------------------------------|--3--2--0--2--L--------|
--0---0---0--0--0---0---0--0--|--3--2--0--2--L--------|
--0---0---0--0--0---0---0--0--|--3--2--0--2--L--------|


            PM PM PM PM PM PM                       PM PM
   H        S  S  E  S  S  E     E  E  E  E  Q.     S  S
------------------------------|---------------------------|
------------------------------|---------------------------|
------------------------------|---------------------------|
---L--------------------------|--3--2--0--2---------------|
---L--------0--0--0--0--0--0--|--3--2--0--2---------0--0--|
---L--------0--0--0--0--0--0--|--3--2--0--2---------0--0--|


  PM  PM  PM PM  PM  PM
  E.  E.  E  E.  E.  E     Q    Q    Q    Q       E  E  Q    Q    Q
------------------------|--0---------5---------|-----5-------8---------|
------------------------|-------6---------6----|--L-----6---------6----|
------------------------|----------------------|-----------------------|
------------------------|----------------------|-----------------------|
--0---0---0--0---0---0--|----------------------|-----------------------|
--0---0---0--0---0---0--|----------------------|-----------------------|


  Q    Q    Q    Q       E  E  Q    Q    Q       Q    Q    Q    Q
--0---------5---------|-----5-------8---------|--0---------5---------|
-------6---------6----|--L-----6---------6----|-------6---------6----|
----------------------|-----------------------|----------------------|
----------------------|-----------------------|----------------------|
----------------------|-----------------------|----------------------|
----------------------|-----------------------|----------------------|


  E  E  Q    Q    Q       Q    Q    Q    Q       E  E  Q    Q    Q
-----5-------8---------|--0---------5---------|-----5-------8---------|
--L-----6---------6----|-------6---------6----|--L-----6---------6----|
-----------------------|----------------------|-----------------------|
-----------------------|----------------------|-----------------------|
-----------------------|----------------------|-----------------------|
-----------------------|----------------------|-----------------------|


  Q    Q    Q    Q       E  E  Q    Q    Q       Q    Q    Q    Q
--0---------5---------|-----5-------8---------|--0---------5---------|
-------6---------6----|--L-----6---------6----|-------6---------6----|
----------------------|-----------------------|----------------------|
----------------------|-----------------------|----------------------|
----------------------|-----------------------|----------------------|
----------------------|-----------------------|----------------------|


  E  E  Q    Q    Q       Q    Q    Q    Q       E  E  Q    Q    Q
-----5-------8---------|--0---------5---------|-----5-------8---------|
--L-----6---------6----|-------6---------6----|--L-----6---------6----|
-----------------------|----------------------|-----------------------|
-----------------------|----------------------|-----------------------|
-----------------------|----------------------|-----------------------|
-----------------------|----------------------|-----------------------|


  Q    Q    Q    Q       E  E  Q    Q    Q       Q    Q    Q    Q
--0---------5---------|-----5-------8---------|----------------------|
-------6---------6----|--L-----6---------6----|--6----6---------6----|
----------------------|-----------------------|------------9---------|
----------------------|-----------------------|----------------------|
----------------------|-----------------------|----------------------|
----------------------|-----------------------|----------------------|


  Q    Q    Q    Q       Q    Q     Q    Q       Q     Q    Q     Q
--5-------------------|-----------------------|--0----------0----------|
------------6---------|--8----8----------8----|------------------------|
-------9---------9----|------------10---------|-------10---------10----|
----------------------|-----------------------|------------------------|
----------------------|-----------------------|------------------------|
----------------------|-----------------------|------------------------|


  Q    Q    Q    Q       Q    Q    Q    Q         E   E   E   E   E  E   Q
----------------------|--8--------------------|-----------------------------|
--6----6---------6----|------------6----Ls----|--10------10-------8--L\-----|
------------9---------|-------9---------9-----|------12------12--10--L\-----|
----------------------|-----------------------|-----------------------------|
----------------------|-----------------------|-----------------------------|
----------------------|-----------------------|-----------------------------|


     PM                   PM PM PM PM PM PM PM PM PM
  E  E  H.                S  S  S  S  S  S  S  S  E  Q.
---------------------||-------------------------------------|
---------------------||-------------------------------------|
---------------------||*------------------------------------|
---------------------||*------------------------------------|
-----0---------------||---0--0--0--0--0--0--0--0--0---------|
-----0---------------||---0--0--0--0--0--0--0--0--0---------|


     PM        PM         PM PM PM PM PM PM PM PM PM
  E  E  Q.     E  Q       S  S  S  S  S  S  S  S  E  Q.
-----------------------|------------------------------------|
-----------------------|------------------------------------|
-----------------------|------------------------------------|
-----------------------|------------------------------------|
-----0---------0-------|--0--0--0--0--0--0--0--0--0---------|
-----0---------0-------|--0--0--0--0--0--0--0--0--0---------|


     PM        PM            PM PM PM PM PM PM PM PM PM
  E  E  Q.     E  Q          S  S  S  S  S  S  S  S  H
------------------------||------------------------------------|
------------------------||------------------------------------|
-----------------------*||*-----------------------------------|
-----------------------*||*--------------------------0--------|
-----0---------0--------||---0--0--0--0--0--0--0--0--0--------|
-----0---------0--------||---0--0--0--0--0--0--0--0--0--------|


     PM        PM         PM PM PM PM PM PM PM PM PM
  E  E  Q.     E  Q       S  S  S  S  S  S  S  S  H
-----------------------|-----------------------------------|
-----------------------|-----------------------------------|
-----------------------|-----------------------------------|
-----0---------0-------|--------------------------0--------|
--L--0--L------0--L----|--0--0--0--0--0--0--0--0--0--------|
--L--0--L------0--L----|--0--0--0--0--0--0--0--0--0--------|


     PM        PM
  E  E  Q.     E  Q         Q     Q    Q     E   E     Q     Q    Q     E   E
------------------------||--------------------------|--------------------------|
------------------------||--------------------------|--------------------------|
-----------------------*||-------10----9----10s--9--|-------10----9----10s-----|
-----0---------0-------*||--------x----x-----x---x--|--------x----x-----x------|
L--0--L------0--L-----||--------8----7-----8s--7--|--------8----7-----8s-------|
--L--0--L------0--L-----||--------------------------|--------------------------|


                              |---3--|  |---3--|   |--3--|
  Q     Q    Q     E   E      E  E   E  E   E  E   E  E  E  Q
--------------------------|--------------------------------------|
--------------------------|--10-----10-----10-----10-------------|
-------10----9----10s--9--|---9------9------9------9-------------|
--------x----x-----x---x--|---x------x------x------x-------------|
--------8----7-----8s--7--|---8------8------8------8-------------|
--------------------------|--------------------------------------|


    PM PM   PM PM            PM PM   PM    PM            PM PM   PM PM
    S  S  S S  S  S E  E  E  S  S  S S     S  S E  E  E  S  S  S S  S  S E
|-------------------5-------------------|-------5------------------------5--|
|----------------------6--5-------------|----------6--5---------------------|
|*--------------------------------------|-----------------------------------|
|*--------------------------------------|-----------------------------------|
|---0--0----0--0-------------0--0----0--|--0-------------0--0----0--0-------|
|---0--0----0--0-------------0--0----0--|--0-------------0--0----0--0-------|


                             PM PM   PM PM            PM PM   PM
  E  E  Q    Q     Q     3x  S  S  S S  S  S E  E  E  S  S  S S
-------------------------||------------------5-------------------|
--6--5-------------------||---------------------6--5-------------|
--------7----7-----9----*||--------------------------------------|
--------x----x-----x----*||--------------------------------------|
--------5----5-----7-----||--0--0----0--0-------------0--0----0--|
-------------------------||--0--0----0--0-------------0--0----0--|


  PM            PM PM   PM PM
  S  S E  E  E  S  S  S S  S  S E     E  E  Q    Q     Q
-------5------------------------5--|------------------------|
----------6--5---------------------|--6--5------------------|
-----------------------------------|--------7----7-----9----|
-----------------------------------|--------x----x-----x----|
--0-------------0--0----0--0-------|--------5----5-----7----|
--0-------------0--0----0--0-------|------------------------|


  W                   W                   W
-------------------|-------------------|-------------------||
-------------------|-------------------|-------------------||
--L----------------|--7----------------|--L----------------||
-------------------|--x----------------|-------------------||
--L----------------|--5----------------|--L----------------||
-------------------|--0----------------|--L----------------||


Duration Legend
---------------
W - whole
H - half
Q - quarter
E - 8th
S - 16th
T - 32nd
X - 64th
. - note dotted
|-n-|  - n-tuplets


Tablature Legend
----------------
L - tied note
x - dead note
g - grace note
(n) - ghost note
> - accentuded note
NH - natural harmonic
AH - artificial harmonic
TH - tapped harmonic
SH - semi harmonic
PH - pitch harmonic
h - hammer on
p - pull off
b - bend
br - bendRelease
pb - preBend
pbr - preBendRelease
brb - bendReleaseBend
\n/ - tremolo bar dip
\n - tremolo bar dive
-/n - tremolo bar Release up
/n\ - tremolo bar inverted dip
/n - tremolo bar return
-\n - tremolo bar Release down
S - shift slide
s - legato slide
/ -  slide into from below or out of upwards
\ -  slide into from above or out of downwards
~ - vibrato
W - wide vibrato
tr - trill
TP - tremolo picking
T - tapping
S - slap
P - pop
< - fade in
^ - brush up
v - brush down





Comments


Popular Vanna tabs & chords
Safe To Say Bass Tabs
A Dead Language For A Dying Lady Tabs
A Dead Language For A Dying Lady Intro Tabs
Country Boys Goddamn Intro Tabs
Home Tabs
Safe To Say Tabs
Shes A Real Battle Axe By Grayson Connelly Intro Tabs
The Alarm Intro Tabs
The Map Is Old News Tabs
We Ate The Horse You Rode In On Tabs


Song lyrics



↑ Back to top | Tablatures and chords are parodies/interpretations of the original songs. You may use it for private study, scholarship, research or language learning purposes only
© 2014 AZChords.com Contact us | Privacy policy | DMCA | Add/correct tabs | Request tabs | Top 50 tabs