>
 >
The Same Graceful Wind

The Same Graceful Wind Guitar Tabs

Vanna - The Same Graceful Wind chords, tabs, tablatures, lyrics

Guitar lessons | Add/correct | Request | Top 50 tabs Artists:  A B C D E F G H I J K L M N O P Q R S T U V W X Y Z 0-9

The Same Graceful Wind Guitar Tabs – Vanna

CD, Sheet music, Poster

Do you like The Same Graceful Wind? Share with your friends now
Tabs
Main Riff

Guitar 1
C#|----------------------------------------------------------------------|
G#|10--10131313131310--1013131313138---8-8-8-8-8-8-8-11--1111118---8-8-8-|
E |x---x-x-x-x-x-x-x---x-x-x-x-x-x-x---x-x-x-x-x-x-x-x---x-x-x-x---x-x-x-|
B |7---7-10101010107---7-10101010105---5-5-5-5-5-5-5-8---8-8-8-5---5-5-5-|
F#|----------------------------------------------------------------------|
B |----------------------------------------------------------------------|
                                                                           X4
C#|------------------------------------------------------------------|
G#|10--10131313131310--1013131313138---------------------------------|
E |x---x-x-x-x-x-x-x---x-x-x-x-x-x-x---------------------------------|
B |7---7-10101010107---7-10101010105-3-3-3-3-3-3-3-3-3-3-3-3-3-3-3-3-|
F#|----------------------------------3-3-3-3-3-3-3-3-3-3-3-3-3-3-3-3-|
B |----------------------------------3-3-3-3-3-3-3-3-3-3-3-3-3-3-3-3-|
                                     . . . . . . . . . . . . . . . .
Guitar 2
C#|----------------------------------------------------------------|
G#|----------------------------------------------------------------|
E |------------------------8-885-55--------------------------------| x4
B |0-0000008-8888885-555555x-xxx-xx--------------------------------|
F#|0-0000008-8888885-5555556-663-330-0000008-8888888333333333333333|
B |0-0000008-8888885-555555--------0-0000008-8888888333333333333333|
                                                    ...............
Pre-Verse

Guitar 1 (Clean)
C#|----------------------------------------5-3---------------------|
G#|---------------------------------------------5---------5-3------|
E |------------------------------------2--------------2---------2--|
B |----------------------------------3---3----------3---3----------| x4
F#|----------------------------------------------------------------|
B |----------------------------------------------------------------|


C#|----------------------------------------------------------------|
G#|----------------------------------------------------------------|
E |----------------------------------------------------------------|
B |0---0-----------0---------------3---3-----------5---------------|
F#|0---0-----------0---------------3---3-----------5---------------|
B |0---0-----------0---------------3---3-----------5---------------|
                   .

Breakdown 1

C#|----------------------------------------------------------------|
G#|----------------------------------------------------------------|
E |----------------------------------------------------------------| x2
B |----------------------------------------------------------------|
F#|0-0-0-0-0-0-0-0-0-0-0-0-0---0---0-0-0-0-0-0-0-0-0-0-0-00---030--|
B |0-0-0-0-0-0-0-0-0-0-0-0-0-0-0-0-0-0-0-0-0-0-0-0-0-0-0-00035---53|
     . . . . . . . . . . . .   .   . . . . . . . . . . . ..

C#|------------------------2*------------------------------2*------|
G#|------------------------2*------------------------------2*------|
E |------------------------2*------------------------------2*------| x2
B |0-1-------0-0-0-0-1-----2*------0-1-------0-0-0-0-1-----2*------|
F#|0-1-------0-0-0-0-1-----2*------0-1-------0-0-0-0-1-----2*------|
B |0-1-------0-0-0-0-1-----2*------0-1-------0-0-0-0-1-----2*------|
   .         . . . .               .         . . . .

Main Riff

Guitar 1
C#|----------------------------------------------------------------------|
G#|10--10131313131310--1013131313138---8-8-8-8-8-8-8-11--1111118---8-8-8-|
E |x---x-x-x-x-x-x-x---x-x-x-x-x-x-x---x-x-x-x-x-x-x-x---x-x-x-x---x-x-x-|
B |7---7-10101010107---7-10101010105---5-5-5-5-5-5-5-8---8-8-8-5---5-5-5-|
F#|----------------------------------------------------------------------|
B |----------------------------------------------------------------------|
                                                                           X4
C#|------------------------------------------------------------------|
G#|10--10131313131310--1013131313138---------------------------------|
E |x---x-x-x-x-x-x-x---x-x-x-x-x-x-x---------------------------------|
B |7---7-10101010107---7-10101010105-3-3-3-3-3-3-3-3-3-3-3-3-3-3-3-3-|
F#|----------------------------------3-3-3-3-3-3-3-3-3-3-3-3-3-3-3-3-|
B |----------------------------------3-3-3-3-3-3-3-3-3-3-3-3-3-3-3-3-|
(palm muted 1st time, 2nd time open)  . . . . . . . . . . . . . . . .

Guitar 2
C#|----------------------------------------------------------------|
G#|----------------------------------------------------------------|
E |------------------------8-885-55--------------------------------| x2
B |0-0000008-8888885-555555x-xxx-xx--------------------------------|
F#|0-0000008-8888885-5555556-663-330-0000008-8888888333333333333333|
B |0-0000008-8888885-555555--------0-0000008-8888888333333333333333|
                                                    ...............

Chorus

Guitar 1 (Clean)
C#|----------------------------------------5-3---------------------|
G#|------------------------5-3------------------5---------5-3------|
E |----2---5-3---------2---------2-----2--------------2---------2--|
B |3-3---3-------5---3---3-----------3---3----------3---3----------| x4
F#|----------------------------------------------------------------|
B |----------------------------------------------------------------|

Guitar 2 (muted 1st time opens 2nd time)
C#|----------------------------------------------------------------|
G#|----------------------------------------------------------------|
E |----------------------------------------------------------------|
B |3-3-3-3-3-3-3-3-3-3-3-3-3-3-3-3-7-7-7-7-7-7-7-7-5-5-5-5-5-5-5-5-|
F#|3-3-3-3-3-3-3-3-3-3-3-3-3-3-3-3-7-7-7-7-7-7-7-7-5-5-5-5-5-5-5-5-|
B |3-3-3-3-3-3-3-3-3-3-3-3-3-3-3-3-7-7-7-7-7-7-7-7-5-5-5-5-5-5-5-5-|

C#|----------------------------------------------------------------|
G#|----------------------------------------------------------------|
E |----------------------------------------------------------------|
B |3-3-3-3-3-3-3-3-3-3-3-3-3-3-3-3-7-7-7-7-7-7-7-7-5-5-5-5---------|
F#|3-3-3-3-3-3-3-3-3-3-3-3-3-3-3-3-7-7-7-7-7-7-7-7-5-5-5-5----030--|
B |3-3-3-3-3-3-3-3-3-3-3-3-3-3-3-3-7-7-7-7-7-7-7-7-5-5-5-5-035---53|



Breakdown 2

C#|----------------------------------------------------------------|
G#|----------------------------------------------------------------|
E |----------------------------------------------------------------| x4
B |----------------------------------------------------------------|
F#|000-0-----00-00-000-0-----------000-0-----00-00-000-0------030--|
B |000-0-----00-00-000-0-----------000-0-----00-00-000-0---035---53|
   ... .     .. .. ... .           ... .     .. .. ... .

Bridge

Guitar 1
C#|------------------------------------03------03------03------03--|
G#|-------3-------3-------3-------3------13------13------13------13|
E |----035-----035-----035-----035---03------03------03------03----| x2
B |--03------03------03------03----03------03------03------03------|
F#|03------03------03------03--------------------------------------|
B |----------------------------------------------------------------|

Guitar 2
C#|----------------------------------------------------------------|
G#|----------------------------------------------------------------|
E |------------------------5---7---------------------------5---7---|
B |7777777777777777777777775---7---------------------------5---7---| x2
F#|7777777777777777777777773---5---00------00------00------3---5---|
B |777777777777777777777777--------00------00------00--------------|
   ........................        ..      ..      ..

Main Riff

Guitar 1
C#|----------------------------------------------------------------------|
G#|10--10131313131310--1013131313138---8-8-8-8-8-8-8-11--1111118---8-8-8-|
E |x---x-x-x-x-x-x-x---x-x-x-x-x-x-x---x-x-x-x-x-x-x-x---x-x-x-x---x-x-x-|
B |7---7-10101010107---7-10101010105---5-5-5-5-5-5-5-8---8-8-8-5---5-5-5-|
F#|----------------------------------------------------------------------|
B |----------------------------------------------------------------------|
                                                                           X4
C#|------------------------------------------------------------------|
G#|10--10131313131310--1013131313138---------------------------------|
E |x---x-x-x-x-x-x-x---x-x-x-x-x-x-x---------------------------------|
B |7---7-10101010107---7-10101010105-3-3-3-3-3-3-3-3-3-3-3-3-3-3-3-3-|
F#|----------------------------------3-3-3-3-3-3-3-3-3-3-3-3-3-3-3-3-|
B |----------------------------------3-3-3-3-3-3-3-3-3-3-3-3-3-3-3-3-|

Guitar 2
C#|----------------------------------------------------------------|
G#|----------------------------------------------------------------|
E |------------------------8-885-55--------------------------------| x4
B |0-0000008-8888885-555555x-xxx-xx--------------------------------|
F#|0-0000008-8888885-5555556-663-330-0000008-8888888333333333333333|
B |0-0000008-8888885-555555--------0-0000008-8888888333333333333333|
                                                    ...............

Chorus

Guitar 1 (Clean)
C#|----------------------------------------5-3---------------------|
G#|---------------------------------------------5---------5-3------|
E |------------------------------------2--------------2---------2--|
B |----------------------------------3---3----------3---3----------| x4
F#|----------------------------------------------------------------|
B |----------------------------------------------------------------|

Guitar 2 (Muted)
C#|----------------------------------------------------------------|
G#|----------------------------------------------------------------|
E |----------------------------------------------------------------|
B |3-3-3-3-3-3-3-3-3-3-3-3-3-3-3-3---------------------------------|
F#|3-3-3-3-3-3-3-3-3-3-3-3-3-3-3-3---------------------------------|
B |3-3-3-3-3-3-3-3-3-3-3-3-3-3-3-3---------------------------------|

Chorus

Guitar 1 (Clean)
C#|----------------------------------------5-3---------------------|
G#|------------------------5-3------------------5---------5-3------|
E |----2---5-3---------2---------2-----2--------------2---------2--|
B |3-3---3-------5---3---3-----------3---3----------3---3----------| x7
F#|----------------------------------------------------------------|
B |----------------------------------------------------------------|

Guitar 2 (wait for 3rd time)
C#|----------------------------------------------------------------|
G#|----------------------------------------------------------------|
E |----------------------------------------------------------------|
B |3-3-3-3-3-3-3-3-3-3-3-3-3-3-3-3-7-7-7-7-7-7-7-7-5-5-5-5-5-5-5-5-| x4
F#|3-3-3-3-3-3-3-3-3-3-3-3-3-3-3-3-7-7-7-7-7-7-7-7-5-5-5-5-5-5-5-5-|
B |3-3-3-3-3-3-3-3-3-3-3-3-3-3-3-3-7-7-7-7-7-7-7-7-5-5-5-5-5-5-5-5-|

C#|--------|
G#|--------|
E |--------|
B |3-------|
F#|3-------|
B |3-------|





Comments


Popular Vanna tabs & chords
Safe To Say Bass Tabs
A Dead Language For A Dying Lady Intro Tabs
Country Boys Goddamn Intro Tabs
Safe To Say Tabs
Shes A Real Battle Axe By Grayson Connelly Intro Tabs
The Alarm Intro Tabs
The Map Is Old News Tabs
The Search Party Never Came Tabs
We Ate The Horse You Rode In On 1 Tabs
When In Roam Tabs


Song lyrics



↑ Back to top | Tablatures and chords are parodies/interpretations of the original songs. You may use it for private study, scholarship, research or language learning purposes only
© 2014 AZChords.com Contact us | Privacy policy | DMCA | Add/correct tabs | Request tabs | Top 50 tabs