» » »

Vanna, The Map Is Old News Tabs (ver.1)

Artists:  A B C D E F G H I J K L M N O P Q R S T U V W X Y Z # 

The Map Is Old News Tabs (ver.1)

Vanna Tabs
Rating:
5/5 (1 vote)
The Map Is Old News lessons Tabs too difficult? Try these video lessons and learn fast
                Band:Vanna
Album:Curses

This is probablly Vanna's easist song to play, so here it is.

Tuning: Drop-B

G1-Guitar 1
G2-Guitar 2

Intro
G1
|-------------------------------------------------------|
|-------------------------------------------------------|
|-13h14---------------------13h14-----------------------|
|-------14h16\9--11-/14-\11--------14h16\9--11-/14--16--|
|-------------------------------------------------------|
|-------------------------------------------------------|
|G2-
|-------------------------------------------------------|
|-------------------------------------------------------|
|-------------------------------------------------------|
|-4-4-4~--------------------4-4-4~----------------------|
|-4-4-4~--------------------4-4-4~----------------------|
|-4-4-4~--------------------4-4-4~----------------------|

Cont.
G1
|-------------------------------------------------------|
|-------------------------------------------------------|
|-13h14---------------------13h14-----------------------|
|-------14h16\9--11-/14-\11--------14h16\9--11-/14--16--|
|-------------------------------------------------------|
|-------------------------------------------------------|
|G2-
|-------------------------------------------------------|
|---------------------------5-5-5-----------------------|
|-9/11-11\9-9---------------6-6-6-----------------------|
|---------------------------0-0-0-----------------------|
|-7/9---9\7-7---------------0-0-0-----------------------|
|-0-0---0-0-0---------------0-0-0-----------------------|


G1
|-------------------------------------------------------|
|-------------------------------------------------------|
|-13h14---------------------13h14-----------------------|
|-------14h16\9--11-/14-\11--------14h16\9--11-/14--16--|
|-------------------------------------------------------|
|-------------------------------------------------------|
|G2-
|-------------------------------------------------------|
|-------------------------------------------------------|
|-------------------------------------------------------|
|-4-4-4~--------------------4-4-4~----------------------|
|-4-4-4~--------------------4-4-4~----------------------|
|-4-4-4~--------------------4-4-4~----------------------|

G1
|-------------------------------------------------------|
|-------------------------------------------------------|
|-13h14---------------------13h14-----------------------|
|-------14h16\9--11-/14-\11--------14h16\9--/11---------|
|-------------------------------------------------------|
|-------------------------------------------------------|
|G2-
|-------------------------------------------------------|
|---------------------------5-5-5-----------------------|
|-9/11-11\9-9---------------6-6-6-----------------------|
|---------------------------0-0-0-----------------------|
|-7/9---9\7-7---------------0-0-0-----------------------|
|-0-0---0-0-0---------------0-0-0-----------------------|

Verse 1
G1
|----------------------------------------------|
|-5-you figure out-----------------------------|
|-6-the strumming------------------------------|
|-4-pattern.--------77-77-77-77-7-77777-77-7-7-|
|-4-----------------44-44-44-44-5-55555-55-5-5-|
|-4--------------------------------------------|
|G2
|----------------------------------------------|
|----------------------------------------------|
|-9--same strum--------------------------------|
|-11-pattern as-----77-77-77-77-7-77777-77-7-7-|
|-12-above----------44-44-44-44-5-55555-55-5-5-|
|----------------------------------------------|

Chorus
G1
|-------5---------5-----------5-------------5---|
|-------5---------5-----------5-------------5---|
|-------6---------6-----------6-------------6---|
|-4-4-4-----4-4-4-------0-0-0---------0-0-0-----|
|-4-4-4-----4-4-4-------0-0-0---------0-0-0-----|
|-4-4-4-----4-4-4-------0-0-0---------0-0-0-----|
|G2
|-----------------------------------------------|
|-----------------------------------------------|
|-----------------------9/11-11-11---4----------|
|-4-4-4-----4-4-4-------------------------------|
|-4-4-4-----4-4-4-------7/9--9--9----2----------|
|-4-4-4-----4-4-4-------0-0--0--0----0----------|

Verse 2
G1 & G2
|--------------------------------------------------------|
|--------------------------------------------------------|
|--------------------------------------------------------|
|-7-777-77/9-99\7-777-77/9-99\7-777-77/9-99\4-444-444-44-|
|-5-555-55/7-77\5-555-55/7-77\5-555-55/7-77\2-222-222-22-|
|--------------------------------------------------------|

G1 & G2
|-----------------------------------------------------------------------|
|-----------------------------------------------------------------------|
|-----------------------------------------------------------------------|
|-7-777-77/9-99\7-777-77/9-99\7-777-77/9-99\4-444-444-44-4/6-666-666-66-|
|-5-555-55/7-77\5-555-55/7-77\5-555-55/7-77\2-222-222-22-2/4-444-444-44-|
|-----------------------------------------------------------------------|

G1
|-------------------------------------------------------------|
|-------------------------------------------------------------|
|-1818-1818-1616-1616-161616/18-1818-1818-1616-1616-161616\13-|
|-------------------------------------------------------------|
|-1616-1616-1414-1414-141414/16-1616-1616-1414-1414-141414\11-|
|-------------------------------------------------------------|
|G2
|-------------------------------------------------------------|
|-------------------------------------------------------------|
|-------------------------------------------------------------|
|-------------------------------------------------------------|
|-1212-1212-1212-1212-12121212--1212-1212-1212-1212-12121212--|
|-1212-1212-1212-1212-12121212--1212-1212-1212-1212-12121212--|

G1
|-------------------------------------------------------------|
|-------------------------------------------------------------|
|-1313-1313-1414-1414-141414\13-1313-1313-1414-1414-141414\13-|
|-------------------------------------------------------------|
|-1111-1111-1212-1212-121212\11-1111-1111-1212-1212-121212\11-|
|-------------------------------------------------------------|
|G2
|-----------------------------------------------------------|
|-----------------------------------------------------------|
|-----------------------------------------------------------|
|-9-9--9-9--9-9--9-9--9-9-9-9---9-9--9-9--9-9--9-9--9-9-9-9-|
|-9-9--9-9--9-9--9-9--9-9-9-9---9-9--9-9--9-9--9-9--9-9-9-9-|
|-9-9--9-9--9-9--9-9--9-9-9-9---9-9--9-9--9-9--9-9--9-9-9-9-|

PLAY THAT 2X THEN PLAY THIS

G1
|-------------|
|-------------|
|-14-14/16-16-|
|-------------|
|-12-12/14-14-|
|-------------|
|G2
|-----------|
|-----------|
|-----------|
|-0---------|
|-0---------|
|-0---------|

Bridge
G1
|----------------------------------------------------|
|----------------------------------------------------|
|----------------------------------------------------|
|-44444444444444444444444444444444444444444444444444-
|-44444444444444444444444444444444444444444444444444-
|-44444444444444444444444444444444444444444444444444-
|G2
|----------------------------------------------------|
|----------------------------------------------------|
|-----------------1111111-13131313-14141414-21212121-|
|-4444444444444444-----------------------------------|
|-44444444444444449-9-9-9-11111111-12121212-19191919-|
|-4444444444444444-----------------------------------|

Both Guitars
|--------------------------------|
|--------------------------------|
|--------------------------------|
|--------------------------------|
|-000-000--000-000-0--0--000-000-|
|-000-000--000-000-0--0--000-000-|
  ... ...  ... ... .  .  ... ...
PLAY THIS 2X THEN

G1
|----------------------------------------------------|
|----------------------------------------------------|
|----------------------------------------------------|
|-44444444444444444444444444444444444444444444444444-
|-44444444444444444444444444444444444444444444444444-
|-44444444444444444444444444444444444444444444444444-
|G2
|----------------------------------------------------|
|----------------------------------------------------|
|-----------------1111111-13131313-14141414-21212121-|
|-4444444444444444-----------------------------------|
|-44444444444444449-9-9-9-11111111-12121212-19191919-|
|-4444444444444444-----------------------------------|

G1
|----------|
|----------|
|-14-16-21-|
|----------|
|-12-14-19-|
|----------|
|G2
|----------|
|----------|
|----------|
|-0--------|
|-0--------|
|-0--------|

Interlude thingy
G1
|-----------------------------------X3|-----------------------|
|-------------------------------------|-----------------------|
|-------------------------------------|-----------------------|
|----------14-------------------------|----------14----18-----|
|-12h14-16----16--1414\12-12/14-14\12-|-12h14-16----16----16--|
|-------------------------------------|-----------------------|
GUITAR 2 PLAYS THE VERSE RIFF BEHIND THE LEAD

PLAY THE CHORUS AND YOUR DONE!!!
THATS ALL, ENJOY, RATE AND/OR COMMENT PLEEZ!!!
            
Submit corrections

comments powered by Disqus
↑ Back to top | Vanna Tabs for The Map Is Old News. Lyrics for acoustic guitar and electric guitar. Tablatures and chords are parodies/interpretations of the original songs. You may use it for private study, scholarship, research or language learning purposes only