» » »

Vanna, That Champagne Feeling Tabs (ver.1)

Artists:  A B C D E F G H I J K L M N O P Q R S T U V W X Y Z # 

That Champagne Feeling Tabs (ver.1)

Vanna Tabs
Rating:
3/5 (2 votes)
That Champagne Feeling lessons Tabs too difficult? Try these video lessons and learn fast
                
Tuning: Drop D
Intro
Listen for strumming on the last part of intro.
e|--------------------------------------------------------------------------|
B|--------------------------------------------------------------7-7-7-7-----|
G|----3------3--------3------3-------3------3--------3-----3----10101010----|
D|----3------3-00-----3------3-0-----3------3-00-----3-----3-0--------------|
A|0-1-3--0-1-3-00-0-1-3--0-1-3-0-0-1-3--0-1-3-00-0-1-3-0-1-3-0--------------|
D|-------------00--------------0--------------00-------------0--------------|
               ..                             ..
e|--------------------------------------------------|
B|--------------------------------------------------|
G|------------3--------3----------------------------| x4
D|------------3-00-----3-0-00-3-1-------------------|
A|0-1-3-0-1-3-3-00-0-1-3-0-00-3-1-------------------|
D|--------------00-------0-00-3-1-------------------|
                           ..

E|----------------------------------------------------|
B|----------------------------------------------------|
G|----------------------------3-----------------------| x4
D|00000000--66---------66-----3-----------------------|
A|00000000--66-0-1-3-1-66-0-1-3-----------------------|
D|00000000--66---------66-----------------------------|
  ........
e|---------------------------------------------------|
B|------7----7--------7------------------------------|
G|------10---10-------10-----------------------------| x4
D|00000---00----000-0--------------------------------|
A|00000---00----000-0--------------------------------|
D|00000---00----000-0--------------------------------|
  .....   ..    ... .
e|-----------------------------------------------------------|
B|-7-7-7-7-7-7-7-7--9-9-9-9-9-9-9-9---7-7-7-7-7-7-7-7-7-7-7--|
G|-1010101010101010-1212121212121212--1010101010101010101010-|
D|-----------------------------------------------------------|
A|-----------------------------------------------------------|
D|-----------------------------------------------------------|

e|-------------------------------------------------------|
B|-7-7-7-7-7-7-7-7-7-7------7----------------------------|
G|-10101010101010101010-----10---------------------------| x3
D|----------------------000----0000-3-2-1-2-1-0----------|
A|----------------------000----0000-3-2-1-2-1-0----------|
D|----------------------000----0000-3-2-1-2-1-0----------|
                        ...    ....
Fourth time on the part above plays like this.
e|---------------------------------------------------------------------|
B|-7-7-7-7-7-7-7-7-7-7------7------------------------------------------|
G|-10101010101010101010-----10-----------------------------------------|
D|----------------------000----0000-3-2-1-2-1-0--3-2-1-2-1-0-----------|
A|----------------------000----0000-3-2-1-2-1-0--3-2-1-2-1-0-----------|
D|----------------------000----0000-3-2-1-2-1-0--3-2-1-2-1-0-----------|
                        ...    ....
e|------------------------------------------------------|
B|------------------------------------------------------|
G|---------------------------7/9------------------------|
D|-3-2-1-2-1-0--3-2-1-2-1-0--x/x------------------------|
A|-3-2-1-2-1-0--3-2-1-2-1-0--5/7------------------------|
D|-3-2-1-2-1-0--3-2-1-2-1-0-----------------------------|
   . . . . . .  . . . . . .
Listen for Strumming on the part below.
e|-------------------------------------------|
B|-------------------------------------------|
G|-------------------------------------------|
D|-0------6------8----8----------------------| x2
A|-0-x32--6-x24--8-x8-8----------------------|
D|-0------6------8----8----------------------|
   .      .      .
e|----------------------------------------------------------|
B|----------------------------------------------------------|
G|----------------------------------------------------------|
D|-0~-0~-0~-0~----------------------------------------------|
A|-0~-0~-0~-0~----------------------------------------------|
D|-0~-0~-0~-0~----------------------------------------------|


e|-------------------------------------------------------------|
B|-------------------------------------------------------------|
G|-------------------------------------------------------------|
D|-0~-6-8--00000000-----------0~-6-8--0~-----------------------|
A|-0~-6-8--00000000--x2-then--0~-6-8--0~-----------------------|
D|-0~-6-8--00000000-----------0~-6-8--0~-----------------------|
           ........
Breakdown
e|----------------------------------------------------------|
B|----------------------------------------------------------|
G|----------------------------------------------------------| x2
D|-00000-00000-00000-00000-00000-00000-8~-------------------|
A|-00000-00000-00000-00000-00000-00000-8~-------------------|
D|-00000-00000-00000-00000-00000-00000-8~-------------------|
   ..... ..... ..... ..... ..... .....

e|--------------------------------------------------------------------------|
B|--------------------------------------------------------------------------|
G|------h7-9-10-0------h7-9-10-0------------h7-9-10-0------h7-9-10-0--------| x2
D|-00000----------00000----------00000-00000----------00000----------00--8~-|
A|-00000----------00000----------00000-00000----------00000----------00--8~-|
D|-00000----------00000----------00000-00000----------00000----------00--8~-|
   .....          .....          ..... .....          .....          ..

Outro
e|--------------------------------------------------|
B|--------------------------------------------------|
G|------------3--------3----------------------------| x2
D|------------3-00-----3-0-00-3-1-------------------|
A|0-1-3-0-1-3-3-00-0-1-3-0-00-3-1-------------------|
D|--------------00-------0-00-3-1-------------------|
                           ..
            

comments powered by Disqus
↑ Back to top | Vanna Tabs for That Champagne Feeling. Lyrics for acoustic guitar and electric guitar. Tablatures and chords are parodies/interpretations of the original songs. You may use it for private study, scholarship, research or language learning purposes only